Song name
# A B C D E F G H I J K L M N O P Q R S T U V W X Y Z

Poison Idea - Ugly American tab

http://www.vh1.com/artists/az/poison_idea/253299/album.jhtml
Band: Poison Idea
Song:Ugly American

tabbed by jam9383@yahoo.com


e---------------------------------------------------------------------|
B---------------------------------------------------------------------|
G-2-2-2-2-2-2-2-2-----------------4-4-4-4-4-4-4-4---------------------|
D-2-2-2-2-2-2-2-2-5-5-5-5-5-5-5-5-4-4-4-4-4-4-4-4---------------------|
A-0-0-0-0-0-0-0-0-5-5-5-5-5-5-5-5-2-2-2-2-2-2-2-2-3-3-3-3-3-3-3-3-3---|
E-----------------3-3-3-3-3-3-3-3-----------------1-1-1-1-1-1-1-1-1---|

e---------------------------------------------------------------------|
B---------------------------------------------------------------------|
G-2-2-2-2-2-2-2-2-----------------4-4-4-5-5-4-------------------------|
D-2-2-2-2-2-2-2-2-5-5-5-5-5-5-5-5-4-4-4-5-5-4---3-3-3-4-4-3-----------|
A-0-0-0-0-0-0-0-0-5-5-5-5-5-5-5-5-2-2-2-3-3-2---3-3-3-4-4-3-----------|
E-----------------3-3-3-3-3-3-3-3---------------1-1-1-2-2-1-----------|

e---------------------------------------------------------------------|
B---------------------------------------------------------------------|
G--2--5--2---7--2--2-2-2--2--2-2-2--2--5--2--7------------------------|
D--2--5--2---7--2--2-2-2--2--2-2-2--2--5--2--7--5--5-5-5--5--5-5-5----|
A--0--3--0---5--0--0-0-0--0--0-0-0--0--3--0--5--5--5-5-5--5--5-5-5----|
E-----------------------------------------------3--3-3-3--3--3-3-3----|

e---------------------------------------------------------------------|
B---------------------------------------------------------------------|
G---------------------------------------------------------------------|
D--4-4-4-4-4-4-4-4---3-3-3-3-3-3-3-3----------------------------------|
A--4-4-4-4-4-4-4-4---3-3-3-3-3-3-3-3----------------------------------|
E--2-2-2-2-2-2-2-2---1-1-1-1-1-1-1-1----------------------------------|

e---------------------------------------------------------------------|
B------9~-------------------------------------------------------------|
G---------------------------------------------------------------------|
D---------------------------------------------------------------------|
A---------------------------------------------------------------------|
E---------------------------------------------------------------------|

any comments/corrections needed, please rate
Tap to rate this tab
# A B C D E F G H I J K L M N O P Q R S T U V W X Y Z