Song name
# A B C D E F G H I J K L M N O P Q R S T U V W X Y Z

Poison The Well - Torn tab

  -Poison the well - Torn
Guitar One - Drop D Tuning
Tabbed by Dan Boles

D---------------------------------------------------------------------|
A-0---------------0------------0-----3---------------3------------3---|
D---2---2----2---------------2---------2---2----2---------------2-----|    x6
G-----4----4----4----4--5--4-------------4----4----4----4--5--4-------|
B---------------------------------------------------------------------|
e---------------------------------------------------------------------|

D------------------2-2-X-2--------------------------------------------|
A---3--STRUMMING---2-2-X-2--2-3-5-3-2---------------------------------|
D---5--STRUMMING------------------------------------------------------|    x4
G---5--STRUMMING------------------------------------------------------|
B---------------------------------------------------------------------|
e---------------------------------------------------------------------|

D---22-22-22-22-----------      --------------------------------------|
A---22-22-22-22-----------      --3-----------3------------3----------|
D-----------------3-2-----  x3  -----2-----2------------2-------------|    x3
G---------------------4-5-      -------0-------------0----------------|
B-------------------------      -----------------0--------------------|
e-------------------------      --------------------------------------|

D---------------------------------------------------------------------|
A---------------------------------------------------------------------|
D---7/10/12--7--------------------------------------------------------|    x6
G---------------------------------------------------------------------|
B---------------------------------------------------------------------|
e---------------------------------------------------------------------|


D------------------2-2-X-2--------------------------------------------|
A---3--STRUMMING---2-2-X-2--2-3-5-3-2---------------------------------|
D---5--STRUMMING------------------------------------------------------|    x4
G---5--STRUMMING------------------------------------------------------|
B---------------------------------------------------------------------|
e---------------------------------------------------------------------|

D---3-33-3-33-3/5-555-55--7-7-7-7-7-7-7-7-7-7-7-----------------------|
A---3-33-3-33-3/5-555-55--7-7-7-7-7-7-7-7-7-7-7-----------------------|
D---------------------------------------------------------------------|    x5
G---------------------------------------------------------------------|
B---------------------------------------------------------------------|
e---------------------------------------------------------------------|
Tap to rate this tab
# A B C D E F G H I J K L M N O P Q R S T U V W X Y Z