Song name
# A B C D E F G H I J K L M N O P Q R S T U V W X Y Z

Poison The Well - Lost In Silence tab

Song: Lost in Silence
Artist: Poison the Well
Album: Opposite of December

Tuning: Standard

Intro
-------------------------------|
-------------------------------|
-------------------------------|
--2----4-times--------------2--| 9 times
--2-------------------------2--|
--0-------------------------0--|


"I've left my mark"
----------------------------------|
----------------------------------|
------------------|   |-----------|
-2-----------3----|   |-5-5-5-5---|
-2---2-2---3---3--|   |-3-3-3-3---|
-0---0-0-0--------|   |-----------|
     x x

"As many sit by and watch"
----------------------|      |---------|
-00000x-00000x-00000x-|      |---------|
-22222x-22222x-22222x-|      |---------|
-33333x-33333x-33333x-|      |---------|
----------------------|      |--4-3-2--|
----------------------|      |--2-1-0--|
                                x x x

"So many die in silence"
---------------------------------------------------|
----0----------------------------------------------|
---0--0------0-------------------------------------|
-4----------0--0-----------------------------------|
-2--------4---------2-2-2-2-2---2-2-2-2-2---2-2-2--|
----------2---------0-0-0-0-0---0-0-0-0-0---0-0-0--|
 x        x           x x x     x x x x     x x

Fill Riff
----------------------|
----------------------|
----------------------|
-44444-44444----------|
-22222-22222--4-3-2---|
--------------2-1-0---|
              x x x
Tap to rate this tab
# A B C D E F G H I J K L M N O P Q R S T U V W X Y Z