Song name
# A B C D E F G H I J K L M N O P Q R S T U V W X Y Z

Poison The Well - Apathy Is A Cold Body tab

www.youcamebeforeyou.com hey
Band:Poison the Well
Song:Apathy is a Cold Body
This is the best a can do in tabbin this song well, this is how my band plays it and it sounds good.
Guitar 1:Intro
e--------------------------10---------------------7-----9-9---------
B--7---7-7---7---7---7--10----10b-7---7-7---7---7---7---------------
G----7-----7---7---7----------------7-----7---7-------7------------- X2
D-------------------------------------------------------------------
A-------------------------------------------------------------------
D-------------------------------------------------------------------
Guitar 1:Preverse
e-----------0-------------------------------------------------------
B--0--------0-------------------------------------------------------
G--7--0-----0-------------------------------------------------------X2
D--7--7--9--0-------------------------------------------------------
A--5--5--7----------------------------------------------------------
D--0--8--8----------------------------------------------------------
Guitar 2:Preverse
e-----------0-------------------------------------------------------
B-----------0-------------------------------------------------------
G--7--0--0--0-------------------------------------------------------X2
D--7--10-7--0-------------------------------------------------------
A--5--8--7----------------------------------------------------------
D--0--8--5----------------------------------------------------------
Guitar 2:Intro repeat x4
Guitar 1+2:Prechorus:
e-------------------------------------------------------------------
B-------------------------------------------------------------------
G-----3-------------------------------------------------------------X2
D--6--x-------------------------------------------------------------
A--x--1-------------------------------------------------------------
D--6----------------------------------------------------------------
Guitar 1:Chorus
I neec to finish tabbin this so ill get back 2 ya.....
Tap to rate this tab
# A B C D E F G H I J K L M N O P Q R S T U V W X Y Z