Song name
# A B C D E F G H I J K L M N O P Q R S T U V W X Y Z

Poison The Well - Nerdy Acoustic tab

Hey, this is my first tab, but i'm pretty sure it's accurate.

Intro

e-13--13--17--13--17--17--17--17---------|
b---13--13--13--13--17--17--17--17-------|
g----------------------------------------|   4x
d----------------------------------------|
a----------------------------------------|
d----------------------------------------|

Verse 1

e----------------------------------------|
b----------------------------------------|
g-----2---2-2-2-2------------------------|
d-3-3---3--2-2-2-2-----------------------|
a--3-3-3-3-------------------------------|
d----------------------------------------|

Pre-Chorus

e-------------------------------------------------------|
b-------------------------------------------------------|
g-------------------------------------------------------|
d-3-3-3-3-x-x-3-3-3-3-3-3-/-7-7-7-7-x-x-7-7-7-7-7-2-2-2-|
a-3-3-3-3-x-x-3-3-3-3-3-3-/-7-7-7-7-x-x-7-7-7-7-7-2-2-2-|
d-3-3-3-3-x-x-3-3-3-3-3-3-/-7-7-7-7-x-x-7-7-7-7-7-2-2-2-|

Chorus
(guitar 1)
e---------------------------------------------------------|
b---------------------------------------------------------|
g-----------------------------2-2-2-2-2-2-2---------------|
d-3-3-3-3-3-3-3-2-2-2-2-2-2-2-2-2-2-2-2-2-2---------------|
a-3-3-3-3-3-3-3-2-2-2-2-2-2-2-0-0-0-0-0-0-0-2-2-2-2-2-2-2-|
d-3-3-3-3-3-3-3-2-2-2-2-2-2-2-0-0-0-0-0-0-0-2-2-2-2-2-2-2-|

e-------------------------------------------------------------------|
b-------------------------------------------------------------------|
g-------------------------------------------------------------------|
d-3-3-3-3-3-3-3-3-5-5-5-5-5-5-5-5-7-7-7-7-7-7-7-7-8-8-8-8-8-8-8-8---|  2x
a-3-3-3-3-3-3-3-3-5-5-5-5-5-5-5-5-7-7-7-7-7-7-7-7-8-8-8-8-8-8-8-8---|
d-3-3-3-3-3-3-3-3-5-5-5-5-5-5-5-5-7-7-7-7-7-7-7-7-8-8-8-8-8-8-8-8---|

(guitar 2)

e----------------------------------------------------|
b----------------------------------------------------|
g-10-10-10-9-9-9-12-10-9-10-10-10-9-9-9-12-10-9------|
d----------------------------------------------------|     6x
a----------------------------------------------------|
d----------------------------------------------------|

Verse 2

e-------------------------------------------------------|
b-------------------------------------------------------|
g-------------------------------------------------------|
d-3-3-3-3-x-x-3-3-3-3-3-3-/-7-7-7-7-x-x-7-7-7-7-7-2-2-2-|
a-3-3-3-3-x-x-3-3-3-3-3-3-/-7-7-7-7-x-x-7-7-7-7-7-2-2-2-|
d-3-3-3-3-x-x-3-3-3-3-3-3-/-7-7-7-7-x-x-7-7-7-7-7-2-2-2-|

Chorus

(guitar 1)
e---------------------------------------------------------|
b---------------------------------------------------------|
g-----------------------------2-2-2-2-2-2-2---------------|
d-3-3-3-3-3-3-3-2-2-2-2-2-2-2-2-2-2-2-2-2-2-2-2-2-2-2-2-2-|
a-3-3-3-3-3-3-3-2-2-2-2-2-2-2-0-0-0-0-0-0-0-2-2-2-2-2-2-2-|
d-3-3-3-3-3-3-3-2-2-2-2-2-2-2-0-0-0-0-0-0-0-2-2-2-2-2-2-2-|

e-------------------------------------------------------------------|
b-------------------------------------------------------------------|
g-------------------------------------------------------------------|
d-3-3-3-3-3-3-3-3-5-5-5-5-5-5-5-5-7-7-7-7-7-7-7-7-8-8-8-8-8-8-8-8---|  2x
a-3-3-3-3-3-3-3-3-5-5-5-5-5-5-5-5-7-7-7-7-7-7-7-7-8-8-8-8-8-8-8-8---|
d-3-3-3-3-3-3-3-3-5-5-5-5-5-5-5-5-7-7-7-7-7-7-7-7-8-8-8-8-8-8-8-8---|

(guitar 2)

e----------------------------------------------(0)
b----------------------------------------------(0)
g-10-10-10-9-9-9-12-10-9-10-10-10-9-9-9-12-10-9(0)
d----------------------------------------------(3)     6x
a----------------------------------------------(3)
d----------------------------------------------(3)

Outro
(guitar 1)

e----------------------------------------|
b----------------------------------------|
g-----2---2-2-2-2------------------------|
d-3-3---3--2-2-2-2-----------------------|
a--3-3-3-3-------------------------------|
d----------------------------------------|

(guitar 2)

e----------------------------|
b----------------------------|
g-10-10-12-10--9--9--9--9----|
d--10-10-10-10-10-10-10-10---|
a----------------------------|
d----------------------------|


e-13--13--17--13--17--17--17--17---------|
b---13--13--13--13--17--17--17--17-------|
g----------------------------------------|   4x
d----------------------------------------|
a----------------------------------------|
d----------------------------------------|
Tap to rate this tab
# A B C D E F G H I J K L M N O P Q R S T U V W X Y Z