Guitaretab - guitar tabs
Song name
# A B C D E F G H I J K L M N O P Q R S T U V W X Y Z

Poison The Well - Turn Down Elliot tab

Artist: Poison The Well
Song: Turn Down Elliot	
Tuning: CGCFAD	
Author: Joel Napolitano

Intro

D|----------|
A|-77777777-|
F|-66666666-|
C|-55555555-|
G|-55555555-|
C|-55555555-|


D|-----------------------------------------------------------------------|
A|-----------------------------------------------------------------------|
F|-----------------------------------------------------------------------|
C|-1-1-xx11-1-1-1-1-1-1xx1-1-xx11-1-1-11--5-5-xx55-5-5-4-5-5xx5xx-5-5-55-|
G|-0-0-xx00-0-0-0-0-0-0xx0-0-xx00-1-1-11--4-4-xx44-4-4-4-4-4xx4xx-4-4-44-|
C|-1-1-xx11-1-1-0-1-1-1xx1-1-xx11-1-1-11--5-5-xx55-5-5-5-5-5xx5xx-5-5-55-|


D|-----------------------------------------------------------------------|
A|-----------------------------------------------------------------------|
F|-----------------------------------------------------------------------|
C|-1-1-xx11-1-1-0-1-1-1xx1-1-1-1-11--5-5-xx55-5-5-5-5-5xx5xx55-5-5-0-1-1-|
G|-0-0-xx00-0-0-0-0-0-0xx0-0-1-1-11--4-4-xx44-4-4-4-4-4xx5xx55-5-5-0-1-1-|
C|-1-1-xx11-1-1-0-1-1-1xx1-1-1-1-11-15-5-xx55-5-5-5-5-5xx5xx55-5-5-0-1-1-|
							P.M  *	
	
D|---------------------|
A|---------------------|
F|---------------------|
C|-0000-0000-0000-0000-|x4
G|-0000-0000-0000-0000-|
C|-0000-0000-0000-0000-|


Guitar 1

D|------------|
A|-8888888888-|
F|-7777777777-|x4
C|-5555555555-|
G|-5555555555-|
C|-5555555555-|

Guitar 2

D|-----------|
A|-----------|
F|-----------|
C|-5555555555|x4
G|-5555555555|
C|-5555888777|


[ Tab from: http://www.guitaretab.com/p/poison-the-well/72472.html ]
D|----------------------------|
A|----------------------------|
F|-11-11-11-11-11-11-11-11-11-|
C|-12-12-12-1211-11-11-11-11-|
G|-9--9--9--9-9--9--9--9--9--|
C|-0--0-0-0--0--0--0--0--0--|

Guitar 1  (Guitar 2 plays high notes with feedback and Delay)

D|----------------------------------------------------------------|
A|----------------------------------------------------------------|
F|-7777777777777777777777777777777--4444444444444-333333333333333-|
C|-xxxxxxxxxxxxxxxxxxxxxxxxxxxxxxx--xxxxxxxxxxxxx-xxxxxxxxxxxxxxx-|
G|-5555555555555555555555555555555--2222222222222-111111111111111-|
C|----------------------------------------------------------------|


D|--------------------------------------------------------------|
A|--------------------------------------------------------------|
F|-777777777777777-1010101010101010-444444444444444-33333333333-|
C|-xxxxxxxxxxxxxxx-xxxxxxxxxxxxxxxx-xxxxxxxxxxxxxxx-xxxxxxxxxxx-|
G|-555555555555555-888888888888888--222222222222222-11111111111-|
C|--------------------------------------------------------------|


D|-----------------------------------|
A|-888888888888888-44444444-33333333-|
F|-777777777777777-33333333-22222222-|
C|-555555555555555-11111111-00000000-|
G|-555555555555555-11111111-00000000-|
C|-555555555555555-11111111-00000000-|


D|----------------------------------------------------------------|
A|-----------------------------------------3-3-3-3-3-3-3-3-3-3-3-3|
F|-10-10-10-10-10-10-10-10-10-10-10-10-10--3-3-3-3-3-3-2-2-2-2-2-2|
C|-8--8--8--8--8--8--8--8--8--8--8--8--8---1-1-1-1-1-1-0-0-0-0-0-0|
G|-8--8--8--8--8--8--8--8--8--8--8--8--8---1-1-1-1-1-1-0-0-0-0-0-0|
C|-8--8--8--8--8--8--8--8--8--8--8--8--8---1-1-1-1-1-1-1-1-0-0-0-0|


Finish on the intro chord
Related for Turn Down Elliot tab