Song name
# A B C D E F G H I J K L M N O P Q R S T U V W X Y Z

Poison - Sexual Thing tab

* * Repeat Once Unless Stated
b   Bend
H   Pull Off

   Main Riff
E||---------------------|--------------------|
B||*---H------H---------|---H------H---------|
G||---5-7-7--5-7-7-7-7--|--5-7-7--5-7-7-5-5--|
D||---0-0-0--0-0-0-0-0--|--0-0-0--0-0-0-0-0--|
A||*--------------------|--------------------|
E||---------------------|--------------------|

   Main Riff cont                        x4
E||--------------------|-------------------|
B||---H------H---------|---H------H-------*|
G||--5-7-7--5-7-7-7-7--|--5-7-7--5-7-7-5---|
D||--0-0-0--0-0-0-0-0--|--0-0-0--0-0-0-0---|
A||--------------------|------------------*|
E||--------------------|-------------------|

   Verse       x8
E||--------------|
B||*---H----H---*|
G||---5-7--5-7---|
D||---0-0--0-0---|
A||*------------*|
E||--------------|

   Chorus
E||-----------------------------------------------|
B||-----------------------------------------------|
G||--7---5-------7-------------7---5-------5---5--|
D||--7---5---5---7-------------7---5---5---5---5--|
A||--5---3---5---5---3b-3b-----5---3---5---3---3--|
E||----------3-------------------------3----------|

Then Play:
Main Riff x1
Verse
Chorus
Solo
Verse

   Extended chorus
E||---------------------------|---------------------|
B||*-------------------------*|---------------------|
G||---7---5-------7-----------|--7---5-------5---5--|
D||---7---5---5---7-----------|--7---5---5---5---5--|
A||*--5---3---5---5---3b-3b--*|--5---3---5---3---3--|
E||-----------3---------------|----------3----------|
Then Verse Again
Tap to rate this tab
 
# A B C D E F G H I J K L M N O P Q R S T U V W X Y Z