Song name
# A B C D E F G H I J K L M N O P Q R S T U V W X Y Z

Poison - Unskinny Bop tab

Author/Artist: Poison
Title: Unskinny Bop
Album: Flesh & Blood
Transcribed by: Jamie Richardson
Email: jamie@digimart.com

-----------------|--------------------3---3-2----|----------------------------|
-----------------|--------------------3---3-3----|----------------------------|
-------------2---|-4-2-0---------2---------------|-------------2--------------|
-2-------2-4-----|-------4-2-0-------------------|-2-------2-4----------------|
-0---3-4---------|-------------4-----------------|-0---3-4--------------------|
-----------------|-------------------------------|----------------------------|
                                              Oh  What's got you so
Jumpy?

--------------------3---3-2----|----------------------------------------------|
--------------------3---3-3----|----------------------------------------------|
-4-2-0---------2---------------|-------------2--------------------------------|
-------4-2-0-------------------|-2-------2-4----------------------------------|
-------------4-----------------|-0---3-4--------------------------------------|
-------------------------------|----------------------------------------------|
                                 Why can't you sit still,
yeah?

--------------------3---3-2----|----------------------------------------------|
--------------------3---3-3----|----------------------------------------------|
-4-2-0---------2---------------|-------------2--------------------------------|
-------4-2-0-------------------|-2-------2-4----------------------------------|
-------------4-----------------|-0---3-4--------------------------------------|
-------------------------------|----------------------------------------------|
                           Like  gasoline you want to pump
me

--------------------3---3-2----|----------------------------------------------|
--------------------3---3-3----|----------------------------------------------|
--4-2-0---------2--------------|-------------2--------------------------------|
--------4-2-0------------------|-2-------2-4----------------------------------|
--------------4----------------|-0---3-4--------------------------------------|
-------------------------------|----------------------------------------------|
                        And Leave me when you get your feel,
yeah.

--------------------3---3-2----|----------------------------------------------|
--------------------3---3-3----|----------------------------------------------|
--4-2-0---------2--------------|----------------------------------------------|
--------4-2-0------------------|-2------2----------2--------------------------|
--------------4----------------|-2------2----------2--------------------------|
-------------------------------|-0------0----------0-------3----3-------------|
                           Every time I touch you, you get
hot,

----------------------------------------|-------------------------------------|
----------------------------------------|-------------------------------------|
----------------------------------------|-------------------------------------|
--2-----------2--------------2-----5----|--2---------2-----------2------------|
--2-----------2--------------2----------|--2---------2-----------2------------|
--0-----------0--------------0----------|--0---------0-----------0-----3---3--|
    I want to make love, you never stop. Come up for air pull me to da
floor.

----------------------------------------|-------------------------------------|
----------------------------------------|-------------------------------------|
----------------------------------------|-------------2-b4--2-b4-2------------|
--2-----------2--------------2-----5----|-2-------2-4-------------------------|
--2-----------2--------------2----------|-0---3-4-----------------------------|
--0-----------0--------------0----------|-------------------------------------|
 What's been going on in that head of (yours) Unskinny Bop
just

--------------------------|---------------------------------------------------|
---------------3----3-----|---------------------------------------------------|
--0------------2----2-----|-------------2-b4-2-b4-2---------------------------|
--0------------0----0-----|-2-------2-4---------------------------------------|
--------------------------|-0---3-4-------------------------------------------|
--3-----------------------|---------------------------------------------------|
  blows me away     yeah    Unskinny bop,
bop

--------------------------|---------------------------------------------------|
-------------------3------|---------------------------------------------------|
--0----------------2------|-------------2-b4-2-b4-2---------------------------|
--0----------------0------|-2-------2-4---------------------------------------|
--------------------------|-0---3-4-------------------------------------------|
--3-----------------------|---------------------------------------------------|
  all night and day  yeah.  Unskinny Bop, bop, bop,
bop

---------------------3-3-4|---------------------------------------------------|
-------------------3-3-3-3|---------------------------------------------------|
-0--------0--------2------|---------------------------------------------------|
-0--------0--------0------|-9----9----9----9----9---9---9---9-----------------|
--------------------------|-7----7----7----7----7---7---7---7-----------------|
-3--------3---------------|-0----0----0----0----0---0---0---0-----------------|
 She just loves to play     Unskinny bop, nothin more to
say.

--------------------------|---------------------------------------------------|
--------------------------|-------------2-------------------------------------|
--------------------------|---------2-4---------------------------------------|
--------------------------|-2---3-4-------------------------------------------|
--------------------------|-0-------------------------------------------------|
--x-2---x-3---x-4---x-5---|---------------------------------------------------|
                       You  look at me so
funny.

--------------------3--3-2-|--------------------------------------------------|
--------------------3--3-3-|-------------2------------------------------------|
--4-2-0---------2----------|---------2-4--------------------------------------|
--------4-2-0--------------|-2---3-4------------------------------------------|
--------------4------------|-0------------------------------------------------|
---------------------------|--------------------------------------------------|
                             Love bite got you acting oh so
strange.

--------------------3--3-2-|--------------------------------------------------|
--------------------3--3-3-|-------------2------------------------------------|
--4-2-0---------2----------|---------2-4--------------------------------------|
--------4-2-0--------------|-2---3-4------------------------------------------|
--------------4------------|-0------------------------------------------------|
---------------------------|--------------------------------------------------|
                        You  got too many bees in your
honey

--------------------3--3-2-|--------------------------------------------------|
--------------------3--3-3-|-------------2------------------------------------|
--4-2-0---------2----------|---------2-4--------------------------------------|
--------4-2-0--------------|-2---3-4------------------------------------------|
--------------4------------|-0------------------------------------------------|
---------------------------|--------------------------------------------------|
                      Am I   just another word in your page,
yeah.

--------------------3--3-2-|--------------------------------------------------|
--------------------3--3-3-|--------------------------------------------------|
--4-2-0---------2----------|--------------------------------------------------|
--------4-2-0--------------|--------------------------------------------------|
--------------4------------|--------------------------------------------------|
---------------------------|--------------------------------------------------|
                      Every...
(Chorus)

---------------|----------------------------------|---------------------------|
---------------|-3--------------------------------|---------------------------|
--0------0-----|-2------------------------------2-|---------------------------|
--0------0-----|-0------------------------------2-|---------------------------|
---------------|--------------------------------0-|---------------------------|
--3------3--4--|----------------------------------|---------------------------|
                    You're saying my love won't do
ya.

-------------------------------|-----------------|----------------------------|
--3----------------------------|----3----2-------|----------------------------|
--2-----------------------2----|----2----2-------|----------------------------|
--0-----------------------2----|----4----2-------|----------------------------|
--------------------------0----|---------0-------|----------------------------|
-------------------------------|-----------------|----------------------------|
       That ain't love written   on your
face

-------------------------------------------|----------------------------------|
--3----------------------------------------|----------------------------------|
--2----------------------------------------|----------------------------------|
--0------------------------------------2---|----------------------------------|
---------------------------------------2---|----------------------------------|
---------------------------------------0---|----------------------------------|
       Well, honey, I can see right through    ya.      We'll
see

------------------------------------------|-----------------------|-----------|
------------------------------------------|-----------------------|-----------|
------------------------------------------|-----------------------|-----------|
------------------------------------------|-----------------------|-----------|
-2---2---2---2---2---2---2---2------------|-----------------------|-----------|
-0---0---0---0---0---0---0---0------------|-x-2---x-3---x-4---x-5-|-----------|
 who's ridin' who at the end of the race.
(solo)

------------------------------------|-----------------------------------------|
------------------------------------|-----------------------------------------|
------------------------------------|-----------------------------------------|
------------------------------------|-----------------------------------------|
------------------------------------|-----------------------------------------|
--2-3-3-3-2-3-3-5-\-----------------|-2-3-3-3-2-3-3/5-------------------------|
                      What's right?                    What's
wrong?

------------------------------------|-----------------------------------------|
------------------------------------|-----------------------------------------|
------------------------------------|-----------------------------------------|
------------------------------------|--0----0---0-------2---------------------|
------------------------------------|----------------3----3---0---------------|
-2-3-3-3-2-3-3-5--------------------|-----------------------------------------|
                     What's left?      What the hell is going
on?

-------------------|----------------------------------------------------------|
-------------------|----------------------------------------------------------|
--0-------0--------|----------------------------------------------------------|
--0-------0--------|----------------------------------------------------------|
-------------------|----------------------------------------------------------|
--3-------3---3--4-|----------------------------------------------------------|
                     Chorus till fade
out.
Tap to rate this tab
# A B C D E F G H I J K L M N O P Q R S T U V W X Y Z