Song name
# A B C D E F G H I J K L M N O P Q R S T U V W X Y Z

Poison - What I Like About You tab

Help us improve GuitareTab! Take a short survey!
-------------------------------------------------------------------------------
			     SONG NAME - Band Name
-------------------------------------------------------------------------------
Tabbed by: NOah Gilbert (Locke11)
Email:superman404@clearwire.net

Tuning:Tuned Down Half a Step (Flat)

e|---------------------------2-------------------------------------------------|
B|--8--------------2---------2-------2-----------------------------------------|
G|-7------7--------2---------3-------2-----------------------------------------|
D|-7------7--------2-----------------2-----------------------------------------|
A|-7------7--------------------------------------------------------------------|
E|-----------------------------------------------------------------------------|

Hope you Like it I was Trying 2 find this tab so bad and i was messin w/ my Guitar and 
it down half a step and found out how 2 do it
Related for What I Like About You tab