Song name
# A B C D E F G H I J K L M N O P Q R S T U V W X Y Z

Poison - Talk Dirty To Me tab

My first tab. Talk Dirty To Me, by Poison


Oppening Riff: Repeat Twice, then Pickslide.


e|---------------------------------------------------------------------------|
b|----------------------------------6/7--7--7--6/7--7--7--6/7--7--7--7-------|
g|-4--x--4--4--4--6--x--6--6--6--6--5/6--6--6--5/6--6--6--5/6--6--6--6-------|
D|-4--x--4--4--4--6--x--6--6--6--6-------------------------------------------|
A|-2--x--2--2--2--4--x--4--4--4--4-------------------------------------------|
E|---------------------------------------------------------------------------|


Verse 1: You know I never....
      pm                          pm
e|---------------------------------------------------------------------------|
b|---------------------------------------------------------------------------|
g|---------------------------------------------------------------------------|
d|--4--------------------------4---------------------------------------------|
a|--4--------------------------4---------------------------------------------|
e|--2--2--2--2--2--2--2--2--2--2--2--2--2--2--2--2--2--2---------------------|


Verse 2: But I like it...
       pm                        pm
e|---------------------------------------------------------------------------|
b|---------------------------------------------------------------------------|
g|--6---------------------------6--------------------------------------------|
d|--6--------------------------6---------------------------------------------|
a|--4--4--4--4--4--4--4--4--4--4--4--4--4--4--4--4--4--4---------------------|
e|---------------------------------------------------------------------------|


Verse 3: And I know you like it too...


       pm                        pm
e|---------------------------------------------------------------------------|
b|---------------------------------------------------------------------------|
g|--4--------------------------4---------------------------------------------|
d|--4--------------------------4---------------------------------------------|
a|--2--2--2--2--2--2--2--2--2--2--2--2--2--2--2--2--2--2---------------------|
e|---------------------------------------------------------------------------|


It repeats untill the Chorus, Which repeats the riff 3X

e|---------------------------------------------------------------------------|
b|----------------------------------6/7--7--7--6/7--7--7--6/7--7--7--7-------|
g|-4--x--4--4--4--6--x--6--6--6--6--5/6--6--6--5/6--6--6--5/6--6--6--6-------|
D|-4--x--4--4--4--6--x--6--6--6--6-------------------------------------------|
A|-2--x--2--2--2--4--x--4--4--4--4-------------------------------------------|
E|---------------------------------------------------------------------------|


At the end of the Chorus, these Chords are played, followed by the riff


                               
e|---------------------------------------------------------------------------|
b|---------------------------------------------------------------------------|
g|--8---------6-------4---------6--------------------------------------------|
d|--8---------6-------4---------6--------------------------------------------|
a|--6---------4-------2---------4--------------------------------------------|
e|---------------------------------------------------------------------------|


Then, the same notes are played as in the verses. Which leads to the solo.

Solo:

------------------------|---------------------|-----------------------|
-5--5-3-1-0--5--5-3-1-0-|12-12-10-8-7-5-3-1-0-|5--5-3-1-0--5--5-3-1-0-|
-5--5-4-2-0--5--5-4-2-0-|12-12-11-9-7-5-4-2-0-|5--5-4-2-0--5--5-4-2-0-|
------------------------|---------------------|-----------------------|
------------------------|---------------------|-----------------------|
------------------------|---------------------|-----------------------|


------------------------------------8----8----8----8-----|
-7-7--7-8-8--8-10-10--10-12-12-----8----8----8----8------|
-7-7--7-8-8--9-11-11--11-12-12--10b--10b--10b--10b----10-|
---------------------------------------------------------|
---------------------------------------------------------|
---------------------------------------------------------|


-3p2p0------------------------------------|-------------------------|
------3p2p0-------------------------------|-------------------------|
-----------4p2p0-----4p2p0----------------|-------------------------|
----------------4p2p0-----4p2p0-----------|-7-7-9-9-10-10-11-11-12--|
-------------------------------3p2p0------|-------------------------|
------------------------------------3p2p0-|-------------------------|


--------------------|--15-15-15-------------------------------------|
--------------------|-----------15-15-15----------------------------|
-14br-12-14br-12-12-|--------------------12-12-12-------------------|
--------------------|-----------------------------12-12-12----------|
--------------------|--------------------------------------10-10-10-|
--------------------|-----------------------------------------------|


Chorus riff to the End!
Tap to rate this tab
# A B C D E F G H I J K L M N O P Q R S T U V W X Y Z