Song name
# A B C D E F G H I J K L M N O P Q R S T U V W X Y Z

Poison - Nothin But A Good Time tab

-------------------------------------------------------------------------------
			Poison - Nothing but a Good Time
-------------------------------------------------------------------------------
Tabbed by:
Email:

Tuning: D#,G#,C#,F#,A#,D#




Getting the order of the riffs should be pretty easy if you listen to the song.

INTRO

Guitar 1 (Rhythm)
D#|---------------------------------------------------------------------------|
A#|----14-14-15-14-15-14-----14-----------------------------------------------|
F#|----14-14-14-14-14-14--12-14----14----14h16p14------12---------------------|
C#|----14-14-16-14-16-14--12-14----14h16----------17---12---12----------------|
G#|---------------------------------------------------------12----------------|
D#|---------------------------------------------------------------------------|

Guitar 2 (Lead)
D#|---------------------------------------------------------------------------|
A#|---------------------------------------------------------------------------|
F#|----------------------------------------------------12---------------------|
C#|----14-14--16-14-16-14----14----------14h16p14------12---12----------------|
G#|-----------------------14b------14h16----------17--------12----------------|
D#|---------------------------------------------------------------------------|

(Come in after third repetition of guitar 1ís riff)


(Lick at end of intro)
D#|--12br---------------------------------------------------------------------|
A#|------12br-p10~------------------------------------------------------------|
F#|---------------------------------------------------------------------------|
C#|---------------------------------------------------------------------------|
G#|---------------------------------------------------------------------------|
D#|---------------------------------------------------------------------------|



VERSE

Guitar 1
D#|---------------------------------------------------------------------------|
A#|---------------------------------------------------------------------------|
F#|----14\-------14-15---15-14-------12---------------------------------------|
C#|----14\-------14-14---14-14-------12----------12---------------------------|
G#|----14\-------14-16---16-14-------------------12---------------------------|
D#|---------------------------------------------------------------------------|



Guitar 2
D#|----5-----------------------------3-----------2----------------------------|
A#|----5-----------------------------3-----------3----------------------------|
F#|----6-----------------------------4-----------2----------------------------|
C#|----7-----------------------------5-----------0----------------------------|
G#|---------------------------------------------------------------------------|
D#|---------------------------------------------------------------------------|



PRE CHORUS
D#|---------------------------------------------------------------------------|
A#|----14-14-15-14-15-14-----14-----------------------------------------------|
F#|----14-14-14-14-14-14--12-14----14----14h16p14------12---------------------|
C#|----14-14-16-14-16-14--12-14----14h16----------17---12---12----------------|
G#|---------------------------------------------------------12----------------|
D#|---------------------------------------------------------------------------|



CHORUS
D#|---------------------------------------------------------------------------|
A#|---------------------------------------------------------------------------|
F#|---14--14--15-14-15-14-------12-------------14-----------------------------|
C#|---14--14--14-14-14-14-------12------12-----14-----------------------------|
G#|---14--14--16-14-16-14---------------12-----14-----------------------------|
D#|---------------------------------------------------------------------------|


D#|---------------------------------------------------------------------------|
A#|---------------------------------------------------------------------------|
F#|---14--14--15-14-15-14-------12--------------------------------------------|
C#|---14--14--14-14-14-14-------12------12------------------------------------|
G#|---14--14--16-14-16-14---------------12-----12-----------------------------|
D#|--------------------------------------------12-----------------------------|



BRIDGE
D#|---------------------------------------------------------------------------|
A#|---------------------------------------------------------------------------|
F#|----14----12----------14--------14----12----------14-----------------------|
C#|----14----12----12----14--------14----12----12----14-----------------------|
G#|----------------12--------------------------12-----------------------------|
D#|---------------------------------------------------------------------------|



SOLO
D#|--22b-22pb-22pb-22br------------19-----------------------------------------|
A#|--------------------22~----20-22--22-20-19-22-20-19----20-10--------19-----|
F#|----------------------------------------------------19-------21-19----21-19|
C#|---------------------------------------------------------------------------|
G#|---------------------------------------------------------------------------|
D#|---------------------------------------------------------------------------|


D#|---------------------------------------------------------------------------|
A#|---------------------------------------------------------------------------|
F#|18-18~------16br-14~--18b-16b-------------17b--------17b-------17/18-------|
C#|-----------------------------------19p17------19p17-----19p17--------------|
G#|----------------------------------------19---------19--------19------------|
D#|---------------------------------------------------------------------------|


D#|-----------------------------------------------------------17-----17-----17|
A#|---------------------------------------------------------------------------|
F#|-----------------5h6h8---------------------9h10h12----17h18--17h18--17h18--|
C#|------------5h6h8-------------------9h10h12--------------------------------|
G#|-------5h6h8-----------------9h10h12---------------------------------------|
D#|--5h6h8---------------9h10h12----------------------------------------------|


D#|------17-------------------------------------------------------------------|
A#|---------------------------------------------------------------------------|
F#|-17h18----------19p18p16---22p21p19------19b--19br-19~~--------------------|
C#|--------19~-------------19---------22--------------------------------------|
G#|---------------------------------------------------------------------------|
D#|---------------------------------------------------------------------------|

D#|------17-----17-----17-----17-----17-----17-----17-----17------------------|
A#|--------17-----17-----17-----17-----17-----17-----17-----17----------------|
F#|---19b----19b----19b----19b----19b----19b----19b----19b--------------------|
C#|---------------------------------------------------------------------------|
G#|---------------------------------------------------------------------------|
D#|---------------------------------------------------------------------------|

D#|--20p19p17-20p19p17--------------------------------------------------------|
A#|------------------20p19p17-20p19p17--------------20b-----------------------|
F#|-----------------------------------19p17--19p17----------------------------|
C#|----------------------------------------19-----19--------------------------|
G#|---------------------------------------------------------------------------|
D#|---------------------------------------------------------------------------|
OUTRO SOLO



D#|---------------------------------------------------------------------------|
A#|---------------------------------------------------------------------------|
F#|---12b-12b--12-11----------------------------------------------------------|
C#|------------------14-12-11---------------------------------5/--------------|
G#|---------------------------12~~---------12----12----10~~~~-5/--------------|
D#|------------------------------------9h10--9h10--9h10-------3/--------------|





************************************

| /   slide up
| \   slide down
| h   hammer-on
| p   pull-off
| ~   vibrato
| +   harmonic
| x   Mute note
| b   Bend
| pb  Pre-bend
| br  Bend release
| pbr Pre-bend release
| brb Bend release bend

************************************
Tap to rate this tab
# A B C D E F G H I J K L M N O P Q R S T U V W X Y Z