Song name
# A B C D E F G H I J K L M N O P Q R S T U V W X Y Z

Poison - Every Rose Has Its Thorn tab

-------------------------------------------------------------------------------
		Every Rose Has Its Thorn - Poison
-------------------------------------------------------------------------------
Tabbed by:  Duffy
Email:  igduffy@wm.edu

Tuning:  half step down (Eb, Ab, Db, Gb, Bb, eb)

My first tab, but I think it's just about perfect.  Email me with any possible fixes if you like.


at 1:13

eb|-----10h12-10~-------------------------15h17-15~---------------------------|
Bb|-12~---------------------12h13p12--12~-----------12h13-12~-----------------|
Gb|--------------------12h14--------14----------------------------------------|
Db|---------------12h14-------------------------------------------------------|
Ab|---------------------------------------------------------------------------|
Eb|---------------------------------------------------------------------------|


at 2:34 

eb|------------------------------10--------10h12-10~--------------------------|
Bb|------12~-13-12-13-12-13-10b12--r10---------------13p12p10-12p10p8-10p8----|
Gb|-10b12-----------------------------12~\--------------------------------11--|
Db|---------------------------------------------------------------------------|
Ab|---------------------------------------------------------------------------|
Eb|---------------------------------------------------------------------------|

eb|----------------------------15------15-----15~\--------------|
Bb|-----------------------15b17---15b17--15b17------------------|
Gb|-12p11--9~-11-11b12-9~--------------------------11-11b12-9~--|
Db|------12-----------------------------------------------------|
Ab|-------------------------------------------------------------|
Eb|-------------------------------------------------------------|

eb|-15-19p15-17p15-----19p15-17p15-19p15-17p15--15~---------------------------|
Bb|---------------17p15-----------------------17------------------------------|
Gb|---------------------------------------------------------------------------|
Db|---------------------------------------------------------------------------|
Ab|---------------------------------------------------------------------------|
Eb|---------------------------------------------------------------------------|




| /  slide up
| \  slide down
| h  hammer-on
| p  pull-off
| ~  vibrato
| +  harmonic
| x  Mute note
| b  Bend
| r  Release
===============================================================================
Tap to rate this tab
# A B C D E F G H I J K L M N O P Q R S T U V W X Y Z