Song name
# A B C D E F G H I J K L M N O P Q R S T U V W X Y Z

Poison - Unskinny Bop tab

-------------------------------------------------------------------------------
			     UNSKINNY BOP - Poison
-------------------------------------------------------------------------------
Tabbed by: ironmanben
Email: bentrooper@gmail.com

Tuning: eb Bb Gb Db Ab Eb

guitar 1 - C.C. Deville - lead - light distortion
guitar 2 - C.C. Deville - rhythm - distortion
guitar 3 - C.C. Deville - rhythm 2 - light distortion


main riff:
(guitars 1 & 2:)
eb|-------------------------------------------3-3-2-----|
Bb|-------------------------------------------3-3-3-----|
Gb|------------2----------4p2p0---------4---------------|
Db|-2------2h4------------------4p2p0-------------------|
Ab|-0--3h4----------------------------2-----0-----------|
Eb|-----------------------------------------------------|


verse:
(guitars 1 & 2:)
eb|-------------------------------------------3-3-2-----|
Bb|-------------------------------------------3-3-3-----|
Gb|------------2----------4p2p0---------4---------------|
Db|-2------2h4------------------4p2p0-------------------|
Ab|-0--3h4----------------------------2-----------------|
Eb|-----------------------------------------------------|


pre-chorus:
(guitars 1 & 2:)
eb|----------------------------|------------------------------|
Bb|----------------------------|------------------------------|
Gb|----------------------------|------------------------------|
Db|-----------5^---------------|-----------5----------5+~-----|
Ab|----7p0----------7p0--------|----7p0---------7p0-----------|
Eb|-0-------0-----0-----0-3-3^-|-0-------0----0-----0---------|

eb|----------------------------|------------------------------|
Bb|----------------------------|------------------------------|
Gb|----------------------------|------------------------------|
Db|----------------------------|-----------5----------5+~-----|
Ab|----7p0----5-----7p0--------|----7p0---------7p0-----------|
Eb|-0-------0-----0-----0-3-3^-|-0-------0----0-----0---------|


chorus:
(guitar 1:)
eb|-----------------------------------------------------------------|
Bb|--------------------------------------3---------3----------------|
Gb|---------------2-4^(6)-4-2-4br(6)p2p0-0---------2----------------|
Db|-2--2-2-----2h4-----------------------0---------0----------------|
Ab|-0--0-00h3h4-----------------------------------------------------|
Eb|-----------------------------------------------------------------|
--| (guitar 2:)                                                     |
eb|-----------------------------------------------------------------|
Bb|-----------------------------------------------------------------|
Gb|-2---2---2---2---2---2---2---2-------------------7---7---7---7---|
Db|-2---2---2---2---2---2---2---2---5---5---5---5---7---7---7---7---|
Ab|-0---0---0---0---0---0---0---0---5---5---5---5---5---5---5---5---|
Eb|---------------------------------3---3---3---3-------------------|
--| (guitar 3:)                                                     |
eb|---------------------------------3--------------2----------------|
Bb|---------------------------------3--------------3----------------|
Gb|---------------------------------0--------------2----------------|
Db|---------------------------------0--------------0----------------|
Ab|---------------------------------2-------------------------------|
Eb|---------------------------------3-------------------------------|


post-chorus:
(guitar 1:)
eb|-----------------------------------------------------|
Bb|-----------------------------------------------------|
Gb|-----------------------------------------------------|
Db|-----------------------------------------------------|
Ab|----7-----7-----7-----7p0----------------------------|
Eb|-0-----0-----0-----0-----0-2~--0-3~--0-4~--0-5~------|
--| (guitar 2:)                                         |
eb|-----------------------------------------------------|
Bb|-----------------------------------------------------|
Gb|-9--9--9--9--9--9--9--9------------------------------|
Db|-9--9--9--9--9--9--9--9------------------------------|
Ab|-7--7--7--7--7--7--7--7------------------------------|
Eb|-------------------------0-2~--0-3~--0-4~--0-5~------|


verse 2:
(guitars 1 & 2:)
eb|-------------------------------------------3-3-2-----|
Bb|-------------------------------------------3-3-3-----|
Gb|------------2----------4p2p0---------4---------------|
Db|-2------2h4------------------4p2p0-------------------|
Ab|-0--3h4----------------------------2-----------------|
Eb|-----------------------------------------------------|
--| (guitar 3:)                                         |
eb|------------5------------------------------3-3-2-----|
Bb|----22---2--5--22---2-2----22---2-2--------3-3-3-----|
Gb|-2--22---2-----22---2-2----22---2-2------------------|
Db|-2---------------------------------------------------|
Ab|-----------------------------------------------------|
Eb|-----------------------------------------------------|

verse 2 fill:
eb|----------17------------------17---------------------------|
Bb|-15^(17)-----17-15----15^(17)------------------------------|
Gb|-------------------17--------------19br(21)p17----19-17~---|
Db|----------------------------------------------h19----------|
Ab|-----------------------------------------------------------|
Eb|-----------------------------------------------------------|


pre-chorus 2 fill:
eb|-12-----12------|
Bb|-15^(17)15^(17)-|
Gb|----------------|
Db|----------------|
Ab|----------------|
Eb|----------------|


post-chorus 2:
(guitar 1:)
eb|-----------------------------------------|
Bb|-----------------------------------------|
Gb|-------------------------0---------------|
Db|-------------------------0---------------|
Ab|----7-----7-----7-----7p0----------------|
Eb|-0-----0-----0-----0-------------3---4---|
--| (guitar 2:)                             |
eb|-----------------------------------------|
Bb|-----------------------------------------|
Gb|-9--9--9--9--9--9--9--9----------0---1---|
Db|-9--9--9--9--9--9--9--9--5-------0---1---|
Ab|-7--7--7--7--7--7--7--7--5---------------|
Eb|-------------------------3---------------|
--| (guitar 3:)                             |
eb|-------------------------3---------------|
Bb|-------------------------3---------------|
Gb|-9--9--9--9--9--9--9--9--0---------------|
Db|-9--9--9--9--9--9--9--9--0-------5---6---|
Ab|-7--7--7--7--7--7--7--7--2-------5---6---|
Eb|-------------------------3-------3---4---|


bridge:
eb|--------------------------------------------------|
Bb|--------------------------------------------------|
Gb|------------------9br(11)-7-----------------------|
Db|------------7-9-7---------------------2-4-2-4--2--|
Ab|--5------9------------------------3h4-------------|
Eb|--------------------------------------------------|
--| (guitar 2:)                                      |
eb|--------------------------------------------------|
Bb|-----------------------------------------2--3--2--|
Gb|-/7------------------------2-------------2--2--2--|
Db|-/7------------------------2-------------2--4--2--|
Ab|---------------------------0----------------------|
Eb|--------------------------------------------------|

eb|-------------------------------------------|
Bb|-------------------------------------------|
Gb|----------------9br(11)-7p0----------------|
Db|----------7-9-7----------------4---2-------|
Ab|--5----9-------------------0---------------|
Eb|-------------------------------------------|
--| (guitar 2:)                               |
eb|-------------------------------------------|
Bb|-------------------------------3---2-------|
Gb|-/7------------------------2---2---2-------|
Db|-/7------------------------2---4---2-------|
Ab|---------------------------0---------------|
Eb|-------------------------------------------|

eb|-----------------------------------------------------------------|
Bb|-----------------------------------------------------------------|
Gb|------------------9br(11)-7--------------------------------------|
Db|------------7-9-7---------------------2--------------------------|
Ab|--5------9------------------------3h4----0-----------------------|
Eb|-------------------------------------------3^----0-0-0-0-0-0-0-0-|
--| (guitar 2:)                                                     |
eb|-----------------------------------------------------------------|
Bb|--7--------------------------------------------------------------|
Gb|--7------------------------2-------------------------------------|
Db|--7------------------------2-------------------------------------|
Ab|---------------------------0---------------------2---------------|
Eb|-------------------------------------------3^----0---------------|

eb|-----------------------------|
Bb|-----------------------------|
Gb|-----------------------------|
Db|-----------------------------|
Ab|-----------------------------|
Eb|-0-2~--0-3~--0-4~--0-5~--5---|
--|                             |
eb|-----------------------------|
Bb|-----------------------------|
Gb|-----------------------------|
Db|-----------------------------|
Ab|-----------------------------|
Eb|-----------------------------|


I do not know the guitar solo as of right now.  Maybe I'll add it later.    


bridge 2:
(guitar 3:)
eb|-------------------------------|
Bb|-------------------------------|
Gb|-------------------------------|
Db|-------------------------------|
Ab|-------------------------------|
Eb|-2/3-3-2/3-3-2/3-5--55--/17\---|

eb|-------------------------------|
Bb|-------------------------------|
Gb|-------------------------------|
Db|--------------------------7----|
Ab|-------------------------------|
Eb|-2/3-3-2/3-3-2/3-5--55--5------|

eb|-------------------------------|
Bb|-------------------------------|
Gb|-------------------------------|
Db|-------------------------------|
Ab|-------------------------------|
Eb|-2/3-3-2/3-3-2/3-5--55--/17\---|


bridge 3:
eb|-------------------------------------|
Bb|---------------------3---------------|
Gb|---------------------0---------------|
Db|---------------------0---------------|
Ab|-------------------------------------|
Eb|-----------------------------3-3-4-4-|
--| (guitar 2:)                         |
eb|-------------------------------------|
Bb|-------------------------------------|
Gb|-------------------------------------|
Db|---------------------5-------5---6---|
Ab|---------------------5-------5---6---|
Eb|---------------------3-------3---4---|
--| (guitar 3:)                         |
eb|---------------------3---------------|
Bb|---------------------3---------------|
Gb|---------------------0---------------|
Db|---------------------0---------------|
Ab|-5-5-5-3-5^(7)-3-----2---------------|
Eb|-----------------5---3-------3---4---|


The last chorus is basically the same as the rest, but C.C. Deville improvises a 
bit.  He does stuff like this...
eb|----------------------|
Bb|----------------------|
Gb|-4p2p0-----4p2p0------|
Db|------4p2p0-----4p2p0-|
Ab|----------------------|
Eb|----------------------|
...etc. towards the end, so feel free to improvise.

Order:
| guitar 1                       | guitar 2      | guitar 3      |
|--------------------------------|---------------|---------------|
| main riff x2                   | main riff x2  |               |
| verse x4                       | verse x4      |               |
| pre-chorus                     | pre-chorus    |               |
| chorus x3                      | chorus x3     | chorus x3     |
| post-chorus                    | post-chorus   |               |
| verse 2 x1                     | verse 2 x1    | verse 2 x1    |
| verse 2 x1/2 & verse 2 fill    | verse 2 x1    | verse 2 x1    |
| verse 2 x2                     | verse 2 x2    | verse 2 x2    |
| pre-chorus & pre-chorus 2 fill | pre-chorus    |               |
| chorus x3                      | chorus x3     | chorus x3     |
| post-chorus 2                  | post-chorus 2 | post-chorus 2 |
| bridge                         | bridge        |               |
| guitar solo                    | chorus x3     | chorus x3     |
| the rest of the guitar solo    | post-chorus 2 | post-chorus 2 |
|                                |               | bridge 2      |
| bridge 3                       | bridge 3      | bridge 3      |
| chorus x8                      | chorus x8     | chorus x8     |
|------------FADE OUT------------|---FADE OUT----|---FADE OUT----|




************************************

| /   slide up
| \   slide down
| h   hammer-on
| p   pull-off
| ~   vibrato
| +   harmonic
| x   Mute note
| ^   Bend
| pb  Pre-bend
| br  Bend release
| pbr Pre-bend release
| brb Bend release bend

************************************
Tap to rate this tab
 
# A B C D E F G H I J K L M N O P Q R S T U V W X Y Z