Song name
# A B C D E F G H I J K L M N O P Q R S T U V W X Y Z

Poison - I Wont Forget You tab

-----------------------------------------------------------------------|
--6b--8--6---13-12-13-12-13-12-13--------15--------------17b15---------|
-----------------------------------14h16-----16--14--12----------------|
-----------------------------------------------------------------------|
-----------------------------------------------------------------------|
-----------------------------------------------------------------------|

------------------------------------------------------------------15--------|
--13-12----12----------------------------------------7-8-5/-15-17----15-17--|
--------14-----14-12--14p12--12-11/12-11------------------------------------|
------------------------------------------12/14/-(2)------------------------|
----------------------------------------------------------------------------|
----------------------------------------------------------------------------|

--15--------15------------------17-15----15-17-15-19--17-15-----15-17-15-19-|
-----15-17-------7-8-5/--12-12--------17--------------------17--------------|
----------------------------------------------------------------------------|
----------------------------------------------------------------------------|
----------------------------------------------------------------------------|
----------------------------------------------------------------------------|

--17-15----15-17-15-19--17-15-15--------------------------------------------|
--------17------------------------------------------------------------------|
----------------------------------------------------------------------------|
----------------------------------------------------------------------------|
----------------------------------------------------------------------------|
----------------------------------------------------------------------------|
Tap to rate this tab
 
# A B C D E F G H I J K L M N O P Q R S T U V W X Y Z