Song name
# A B C D E F G H I J K L M N O P Q R S T U V W X Y Z

Poison - Talk Dirty To Me tab

------------------------------------------------------------------------------------------------

   Poison - Talk Dirty To Me (Solo)

------------------------------------------------------------------------------------------------


------------------------------------------------------------------------------------------------
b bend

br bend and release

p pull-off
------------------------------------------------------------------------------------------------

Note: All the bends are full bends.

CC, pick up that guitar and talk to me!


------------------------------------------------------------------------------|
--5--5--3--1--0---5--5--3--1--0----12--12--10--10--8--8--7--7--5--5--3--1--0--|
--5--5--4--2--0---5--5--4--2--0----12--12--11--11--9--9--7--7--5--5--4--2--0--|
------------------------------------------------------------------------------|
------------------------------------------------------------------------------|
------------------------------------------------------------------------------|


------------------------------------------------------------------------------|
--5--5--3--1--0---5--5--3--1--0----7--7--8--8--10--10--12--12-----------------|
--5--5--4--2--0---5--5--4--2--0----7--7--9--9--11--11--12--12-----------------|
------------------------------------------------------------------------------|
------------------------------------------------------------------------------|
------------------------------------------------------------------------------|


--------8---------8---------8---------8---------8------|
------8---------8---------8---------8---------8--------|
--10b-------10b-------10b-------10b-------10b----------|
-------------------------------------------------------|
-------------------------------------------------------|
-------------------------------------------------------|

--3p2p0----------------------------------------------------------|
----------3p2p0--------------------------------------------------|
------------------4p2p0-----------4p2p0--------------------------|
--------------------------4p2p0-----------4p2p0------------------|
--------------------------------------------------3p2p0----------|
----------------------------------------------------------3p2p0--|

----------------------------------------------------15--15---------------------------------------|
-1--1--3--3--5--5--6--6--7---10br-8-10br-8-8-----------------15--15------------------------------|
-2--2--4--4--5--5--6--6--7--------------------------------------------12--12---------------------|
---------------------------------------------------------------------------------12--12----------|
------------------------------------------------------------------------------------------10--10-|
-------------------------------------------------------------------------------------------------|

Tabbed by: LB swe
Email: ludvigbertilsson@yahoo.se
Tap to rate this tab
 
# A B C D E F G H I J K L M N O P Q R S T U V W X Y Z