Poison - Look What The Cat Dragged In tab

e--------------------------------------------------------------|
b--------------------------------------------------------------|
g---------9-11----9-11-12---15-12-9h12p9-----------------------|
d-9-11-12------12------------------------14-12-11h12p11--------|
a-------------------------------------------------------14-12--|
E--------------------------------------------------------------|


e--------------------15----------------------------------------|
b-----------------------14----15-------------------------------|
g--------------------------13----14----15----------------------|
d-----------------------------------13----14----15-------14----|
a-11h12p11-----------------------------------13----14----------|
E----------14-----------------------------------------13-------|


e-14/17-17-17---14/17-17-17---14/17-17-17----------------------|
b-14/17-17-17---14/17-17-17---14/17-17-17----------------------|
g------------------------------------------9b12----9-----------|
d--------------------------------------------------------------|
a--------------------------------------------------------------|
E--------------------------------------------------------------|


e--------------------------------------------------------------|
b--------------------------------------------------------------|
g-12------12--11--12------12--14----nh(3)divebomb--------------|
d---------------------14---------------------------------------|
a--------------------------------------------------------------|
E--------------------------------------------------------------|

The opening lick sounds stupid slow just listen to the song so
you can hear how fast it is. I'm 99% sure thats what is played. furnaceroad.com
Tap to rate this tab
 
# A B C D E F G H I J K L M N O P Q R S T U V W X Y Z