Song name
# A B C D E F G H I J K L M N O P Q R S T U V W X Y Z

Poison - Your Mama Dont Dance tab

Here the lead for the intro..I am trying to break it down for you guys. 
The rest of the tab will be coming. Once I finish tabbing it.



Tuning: Standard

e|---------------|
B|--------2------|
G|-6---------3-1-| 8x
D|-6--2h3--------|
A|-4-------------|
E|---------------|

Lead guitar(during the Intro)
e|------9----9-9---9--12---9-7----7---7----------|
B|-5-6----9---------------------9---9----9-7-7---|
G|-----------------------------------------------|
D|-----------------------------------------------|
A|-----------------------------------------------|
E|-----------------------------------------------|

e|-4--2-0----------------------------|
B|--------2-1-0------------2---------|
G|---------------1-0-----------------|
D|--------------------4-2------------|
A|-----------------------------------|
E|-----------------------------------|

************************************

| /   slide up
| \   slide down
| h   hammer-on
| p   pull-off
| ~   vibrato
| +   harmonic
| x   Mute note
| b   Bend
| pb  Pre-bend
| br  Bend release
| pbr Pre-bend release
| brb Bend release bend

************************************
Tap to rate this tab
# A B C D E F G H I J K L M N O P Q R S T U V W X Y Z