Song name
# A B C D E F G H I J K L M N O P Q R S T U V W X Y Z

Poison - So Tell Me Why tab

I am working on the solo.

Tuning:Half-step down

Intro:
 Guitar 1
eb|--------------------------------------------------------|
Bb|9--7--10-10-10-10-9-------------9-7--9p7---9-9--7-7-----|
Gb|--------------------11-9-9-9-11----------9--------------|2x
Db|--------------------------------------------------------|
Ab|--------------------------------------------------------|
Eb|--------------------------------------------------------|
  Guitar 2
eb|--------------------------------------------------------|
Bb|--------------------------------------------------------|
Gb|---4---2----2-----2----4-4------6--4----9------4--4-----|2x
Db|2--4---2----2-----2----4-4------4--4----9------4--4-----|
Ab|2--2---0----0-----0----2-2------4--2----7------2--2-----|
Eb|0-------------------------------------------------------|

Verse:
Guitar 1 and Guitar 2
eb|-----------------------------------------|
Bb|-----------------------------------------|
Gb|9\-----------------------9\--------------|2x
Db|9\----7--7--7/9--9-------9\---7--9--9----|
Ab|7\----7--7--7/9--9-------7\---7--9--9----|
Eb|------5--5--5/7--7------------5--7--7----|

Guitar 1 and Guitar 2
e|--------------------------------------------|
B|--------------------------------------------|
G|9\-4---------------------9\-4---------------|
D|9\-4--7-7--7/9-9---------9\-4---7--9--9-----|2x
A|7\-2--7-7--7/9-9---------7\-2---7--9--9-----|
E|------5-5--5/7-7----------------5--7--7-----|

Guitar 1 and Guitar 2
e|----------------------------------------------------------------|
B|---------5---------------4--------------------------------------|
G|6-6-6--6---6----4--4-4-4---4----------2-----4-----6-------------|
D|6-6-6--------6--4--4-4-4-----4---4----4-----6-----7----9--------|
A|4-4-4-----------2--2-2-2-------2--------4-----7-----7--9--------|
E|------------------------------------2-----4-----5------7--------|

Chorus:

Guitar 1
eb|--------------------------------------------------------|
Bb|9--7--10-10-10-10-9-------------9-7--9p7---9-9--7-7-----|
Gb|--------------------11-9-9-9-11----------9--------------|2x
Db|--------------------------------------------------------|
Ab|--------------------------------------------------------|
Eb|--------------------------------------------------------|

 Guitar 2
eb|--------------------------------------------------------|
Bb|--------------------------------------------------------|
Gb|---4---2----2-----2----4-4------6--4----9------4--4-----|2x
Db|2--4---2----2-----2----4-4------4--4----9------4--4-----|
Ab|2--2---0----0-----0----2-2------4--2----7------2--2-----|
Eb|0-------------------------------------------------------|

Verse:

Guitar 1 and Guitar 2
eb|-----------------------------------------|
Bb|-----------------------------------------|
Gb|9\-----------------------9\--------------|2x
Db|9\----7--7--7/9--9-------9\---7--9--9----|
Ab|7\----7--7--7/9--9-------7\---7--9--9----|
Eb|------5--5--5/7--7------------5--7--7----|

Guitar 1 and Guitar 2
e|--------------------------------------------|
B|--------------------------------------------|
G|9\-4---------------------9\-4---------------|
D|9\-4--7-7--7/9-9---------9\-4---7--9--9-----|
A|7\-2--7-7--7/9-9---------7\-2---7--9--9-----|
E|------5-5--5/7-7----------------5--7--7-----|

Guitar 1 and Guitar 2
e|----------------------------------------------------------------|
B|---------5---------------4--------------------------------------|
G|6-6-6--6---6----4--4-4-4---4----------2-----4-----6-------------|
D|6-6-6--------6--4--4-4-4-----4---4----4-----6-----7----9--------|
A|4-4-4-----------2--2-2-2-------2--------4-----7-----7--9--------|
E|------------------------------------2-----4-----5------7--------|


Chorus:

Guitar 1
eb|--------------------------------------------------------|
Bb|9--7--10-10-10-10-9-------------9-7--9p7---9-9--7-7-----|
Gb|--------------------11-9-9-9-11----------9--------------|2x
Db|--------------------------------------------------------|
Ab|--------------------------------------------------------|
Eb|--------------------------------------------------------|

 Guitar 2
eb|--------------------------------------------------------|
Bb|--------------------------------------------------------|
Gb|---4---2----2-----2----4-4------6--4----9------4--4-----|2x
Db|2--4---2----2-----2----4-4------4--4----9------4--4-----|
Ab|2--2---0----0-----0----2-2------4--2----7------2--2-----|
Eb|0-------------------------------------------------------|

Please rate and comment.
************************************

| /   slide up
| \   slide down
| h   hammer-on
| p   pull-off
| ~   vibrato
| +   harmonic
| x   Mute note
| b   Bend
| pb  Pre-bend
| br  Bend release
| pbr Pre-bend release
| brb Bend release bend

************************************
  
Tap to rate this tab
 
# A B C D E F G H I J K L M N O P Q R S T U V W X Y Z