Song name
# A B C D E F G H I J K L M N O P Q R S T U V W X Y Z

Poison - Talk Dirty To Me tab

Tabbed by: kyle532
E-mail: kbrody58@gmail.com

Tuning:standard

This is my first set of tabs so I started with a solo
It is section off by each part 


E|---------------------------------------------------------------------------|
B|\5-5-3-1-0-\5-5-3-1-0------------------------------------------------------|               
G|\5-5-4-2-0-\5-5-4-2-0------------------------------------------------------|
D|---------------------------------------------------------------------------|
A|---------------------------------------------------------------------------|
E|---------------------------------------------------------------------------|

e|---------------------------------------------------------------------------|
B|\12-12-10-8-7-5-3-1-0--\5-5-3-1-0-\5-5-3-1-0-------------------------------|
G|\12-12-11-9-7-5-4-2-0--\5-5-4-2-0-\5-5-4-2-0-------------------------------|
D|---------------------------------------------------------------------------|
A|---------------------------------------------------------------------------|
E|---------------------------------------------------------------------------|

e|---------------------------------------------------------------------------|
B|7-7-7-8-8-8-10-10-10-12-12-12----------------------------------------------|
G|7-7-7-9-9-9-11-11-11-12-12-12----------------------------------------------|
D|---------------------------------------------------------------------------|
A|---------------------------------------------------------------------------|
E|---------------------------------------------------------------------------|

e|------8-------8------8--------8--------------------------------------------|
B|----8-------8-------8-------8----------------------------------------------|
G|10b-----10b------10b----10b------------------------------------------------|
D|---------------------------------------------------------------------------|
A|---------------------------------------------------------------------------|
E|---------------------------------------------------------------------------|

e|-3p2p0---------------------------------------------------------------------|
B|--------3p1p0--------------------------------------------------------------|
G|---------------4p2p0--------4p2p0------------------------------------------|
D|----------------------4p2p0--------4p2p0-----------------------------------|
A|-----------------------------------------3p2p0-----------------------------|
E|------------------------------------------------3p2p0----------------------|

e|---------------------------------------------------------------------------|
B|--------------------------10b-8-10b-8-8------------------------------------|
G|2-2-2-4-4-4-5-5-5-6-6-6-7--------------------------------------------------|
D|---------------------------------------------------------------------------|
A|---------------------------------------------------------------------------|
E|---------------------------------------------------------------------------|

e|15-15-15-------------------------------------------------------------------|
B|---------15-15-15----------------------------------------------------------|
G|------------------12-12-12-------------------------------------------------|
D|---------------------------12-12-12----------------------------------------|
A|------------------------------------10-10-10-------------------------------|
E|---------------------------------------------------------------------------|


************************************

| /   slide up
| \   slide down
| h   hammer-on
| p   pull-off
| ~   vibrato
| +   harmonic
| x   Mute note
| b   Bend
| pb  Pre-bend
| br  Bend release
| pbr Pre-bend release
| brb Bend release bend

************************************
Tap to rate this tab
# A B C D E F G H I J K L M N O P Q R S T U V W X Y Z