Guitaretab - guitar tabs
Song name
# A B C D E F G H I J K L M N O P Q R S T U V W X Y Z

Poisonblack - Love Infernal tab

Title:  Love infernal
Artist: Poisonblack
Album:  Escapexstacy

Tuning:  down 1/2 step and drop D

Clean/ Accoustic
|o----------------------------------------------------------|
|o----------------------------------------------------------|
|o----------------------------------------------------------|
|o----------------------------------------------------------|
|o-3h5-------3h5--------3h5---5/8--------8\7------7---------|
|o-0---0--0--0-----0--0------0------0--0-----0--0---0-------|
[ Tab from: http://www.guitaretab.com/p/poisonblack/101836.html ]
---------------------------------------------------------o|
---------------------------------------------------------o|
---------------------------------------------------------o|
---------------------------------------------------------o|
-3h5-----5---5----1-----1-----3-----3--------------------o|
------0----0----0----0-----0-----0-----------------------o|

____________________________________________________________

------------------------------------------------------------|
------------------------------------------------------------|
------------------------------------------------------------|
-0-------------------0--------------------------------------|
-0-------------------0--------------------------------------|
-0-pickscrape--mute--0---pickscrape---intro-again-----------|


havent quite figured out the rest of the song yet and this is very acurate.
questions send me a message
Related for Love Infernal tab
Advertisement will be closed in 10 seconds