Song name
# A B C D E F G H I J K L M N O P Q R S T U V W X Y Z

Poisonblack - Mercury Falling tab

Poisonblack - Mercury Falling

Tabs By Juha Karjalainen

(some stuff may be missing etc. but hope this helps)


Tuning Drop C#


2x Intro riff
|-------------------------8---7-|
|-8-------10------8-------------|
|-----9-------9-------9---------|
|---7---7---7---7---7---7---7---|
|-------------------------------|
|-------------------------------|


2x main (lead plays intro)
|-----------------|-----------------|-----------------|--------------------|
|-----------------|-----------------|-----------------|--------------------|
|-----------------|-5-5-5-5-5-5-5-5-|-----------------|--------------------|
|-7-7-7-7-7-7-7-7-|-5-5-5-5-5-5-5-5-|-5-5-5-5-5-5-5-5-|-3-3-3-3-3--5--5--5-|
|-7-7-7-7-7-7-7-7-|-3-3-3-3-3-3-3-3-|-5-5-5-5-5-5-5-5-|-3-3-3-3-3--5--5--5-|
|-7-7-7-7-7-7-7-7-|-----------------|-5-5-5-5-5-5-5-5-|-3-3-3-3-3--5--5--5-|


2x Verse
|-----------------|--------------------|
|-----------------|--------------------|
|-----------------|--------------------|
|-----------------|------------5-5-----|
|-3-2-3---3-2-3---|-7--7-7-7-7-3-3-5-5-|
|-3-2-3---3-2-3---|-7--7-7-7-7-----5-5-|

|-----------------|-----------------------|
|-----------------|-----------------------|
|-----------------|-----------------------|
|-----------------|-----------5-7-9-7-575-|
|-3-2-3---3-2-3---|-5--7-5-7--3-5-7-5-353-|
|-3-2-3---3-2-3---|-5--7-5-7--------------|

Bridge
|-----------------|-----------------------------|
|-----------------|-----------------------------|
|-5---------------|-2-00-2-00-2-0-2-------------|
|-5------5--------|-2-00-2-00-2-0-2-------------|
|-3------5--------|-0-00-0-00-0-0-0---pause-----|
|--------5--------|-----------------------------|

2x chorus
|-----------------|-----------------|-----------------|--------------------|
|-----------------|-----------------|-----------------|--------------------|
|-----------------|-5-5-5-5-5-5-5-5-|-----------------|--------------------|
|-7-7-7-7-7-7-7-7-|-5-5-5-5-5-5-5-5-|-5-5-5-5-5-5-5-5-|-3-3-2-3----7-7-5-7-|
|-7-7-7-7-7-7-7-7-|-3-3-3-3-3-3-3-3-|-5-5-5-5-5-5-5-5-|-3-3-2-3----7-7-5-7-|
|-7-7-7-7-7-7-7-7-|-----------------|-5-5-5-5-5-5-5-5-|-3-3-2-3----7-7-5-7-|


1x main (lead plays intro)

2x verse

1x bridge

2x Chorus


2x C part
|----------------------------------|----------------------------------|
|----------------------------------|----------------------------------|
|----------------------------------|----------------------------------|
|----------------------------------|----------------------------------|
|-3--0-0-5-0-0-7-0-0-9-0-0-7-0-5-0-|-3-0-0-5-0-0-7-0-0-9-0-0-7-0-9^---|
|----------------------------------|----------------------------------|

|----------------------------------|----------------------------------|
|----------------------------------|----------------------------------|
|----------------------------------|-------------------------2-0-5----|
|----------------------------------|-2p0---2p0---2p0---2p0---2-0-5-7\-|
|-3--0-0-5-0-0-7-0-0-9-0-0-7-0-5-0-|-----0-----0-----0-----0-0-0-3-7\-|
|----------------------------------|-------------------------------7\-|

3.5x intro riffi

Pause

2x chorus

Solo (2x chorus)

|------------|--------------|----------------------|
|------------|--------------|-8^(10)8--------------|
|-----5-7----|-9~---9--7--3-|----------9---9--7--5-|
|-7----------|--------------|----------------------|
|------------|--------------|----------------------|
|------------|--------------|----------------------|

|--(sound quite similiar :)-|-----------------|
|---------------------------|-----------------|
|-7^(9)7-7^(9-9F)7p5-7^(9)7-|-7~~~5~~~----5-7-|
|---------------------------|---------7-------|
|---------------------------|-----------------|
|---------------------------|-----------------|

|--------------|--------(sound quite similiar :)--------|
|------8-------|-----10-13-13^(15)13 11-----------------|
|-9~-----9~----|-9-12-------------------12^(14)12-9-7/5-|
|--------------|----------------------------------------|
|--------------|----------------------------------------|
|--------------|----------------------------------------|

|-(sound quite similiar :)--|------------|
|---------------------------|------------|
|-7^(9)7-7^(9-9F)7p5-7^(9)7-|-7~~~~5~~~--|
|---------------------------|------------|
|---------------------------|------------|
|---------------------------|------------|

Tap to rate this tab
# A B C D E F G H I J K L M N O P Q R S T U V W X Y Z