Song name
# A B C D E F G H I J K L M N O P Q R S T U V W X Y Z

Polar Bear Club - Boxes tab

-------------------------------------------------------------------------------
			     BOXES - Polar Bear Club
-------------------------------------------------------------------------------
Tabbed by: MARCO VEZZARO
Email: winter-dust@hotmail.it

Tuning:EADGBe

(-) = bend
 X  = mute



INTRO
 |-------------------|---------------------------------------------------|
 |-------------------|------------------7--------------------------------|
 |---------7---9-----|----------7---9---7-----7----------7--7------------|
1|---------7---7-----|----------7---7---------7----------7--7------------|
 |--0--0-----0-------|---0--0-----0---0---0---X----------X--X------------|
 |--0--0-----0-------|---0--0-----0---0---0---7----------7--5------------|

 |-------------------|---------------------------------------------------|
 |-------------------|--------------------------10-----------------------|
 |-----------4/9-----|------------11(12)-11--7-----11--------------------|
2|-------------------|--------------------------------12---11-11(12)-7---|
 |-------------------|-----------------------------------0---------------|
 |-------------------|---------------------------------------------------|



 |-------------------|---------------------------------------------------|
 |-------------------|------------------7--------------------------------|
 |---------7---9-----|----------7---9---7-----7----------7--7------------|
1|---------7---7-----|----------7---7---------7----------7--7------------|
 |--0--0-----0-------|---0--0-----0---0---0---X----------X--X------------|
 |--0--0-----0-------|---0--0-----0---0---0---7----------7--5------------|

 |-------------------|---------------------------------------------------|
 |-------------------|--------------------------10-----------------------|
 |-----------4/9-----|------------11(12)-11--7-----11--------------------|
2|-------------------|--------------------------------12--14-------------|
 |-------------------|---------------------------------------------------|
 |-------------------|---------------------------------------------------|

Verse (1st part)

    introspection  fabricated  pretend to hate it pretend to hate it all
 |---------------------------------------3---3----X------------3--3---X--|
 |---------------------------------------3---3----X------------3--3---X--|
 |------------------------------------------------X-------------------X--|
1|---5-55---------7-77-------------2-2-----2---2--X-------2-2---2--2--X--|
 |---5-55---------7-77-------------2-2-----2---2--X-------2-2---2--2--X--|
 |---3-33---------5-55-------------0-0-----0---0--X-------0-0---0--0--X--|

 |-----------------------------------------------------------------------|
 |-----------------------------------------------------------------------|
 |----------0---2-----------0---2_4_2------(see 1)-----------------------|
2|--------4---4---0-------4---4------4-----------------------------------|
 |-----------------------------------------------------------------------|
 |-----------------------------------------------------------------------|


  the attention  it's not a bad thing  pretend to hate it all  
 |---------------------------------------3---3----X------------3--3---X--|
 |---------------------------------------3---3----X------------3--3---X--|
 |------------------------------------------------X-------------------X--|
1|---5-55---------7-77-------------2-2-----2---2--X-------2-2---2--2--X--|
 |---5-55---------7-77-------------2-2-----2---2--X-------2-2---2--2--X--|
 |---3-33---------5-55-------------0-0-----0---0--X-------0-0---0--0--X--|

 |-----------------------------------------------------------------------|
 |-----------------------------------------------------------------------|
 |------0---2-----------0---2-h4-p2------(see 1)-------------------------|
2|----4---4---0-------4---4---------4------------------------------------|
 |-----------------------------------------------------------------------|
 |-----------------------------------------------------------------------|

Verse (2nd part)


2 X  When you first walked these roads what were you so afraid of?
     The thought of a different life, it sends you off the deep-end

  |----------------------------------------------------------------------|
  |----------------------------------------------------------------------|
  |----------------------------------------------------------------------|
1 |--5-5-5-5-5-7-7-7-7-7-2-2-2-2-2-2-2-2-2-2-----------------------------|
  |--5-5-5-5-5-7-7-7-7-7-2-2-2-2-2-2-2-2-2-2-----------------------------|
  |--3-3-3-3-3-5-5-5-5-5-0-0-0-0-0-0-0-0-0-0-----------------------------|

  |----------------------------------------------------------------------|
  |-------------------------------3----3---------------------------------|
  |--------0--------0-2-------0-----0----0-------------------------------|
2 |------4---4----4---------4---4-----4----4-----------------------------|
  |----------------------------------------------------------------------|
  |--3-3-------5-5------0-0----------------------------------------------|


      When you scream "I'm just a normal guy"

  |----------------------------------------------------------------------|
  |----------------------------------------------------------------------|
  |----------------------------------------------------------------------|
1 |--5-5-X-----7-7-X-----9-9-9-9-9-7-7-7-7-7-7---------------------------|
  |--5-5-X-----7-7-X-----9-9-9-9-9-7-7-7-7-7-7---------------------------|
  |--3-3-X-----5-5-X-----7-7-7-7-7-5-5-5-5-5-5---------------------------|

  |----------------------------------------------------------------------|
  |----------------------------------------------------------------------|
  |--------0--------0-2-------0---------2--------------------------------|
2 |------4---4----4-------------5-----0---0------------------------------|
  |-------------------------5-------5-------5----------------------------|
  |--3-3-------5-5------7-7-------5--------------------------------------|



      It's painfully apparent your aim is to be deified
  
  |--------------------------|---------------------------------|
  |--------------------------|---------7-7-7-X------7-7-7-X----|
  |--------------------------|---------7-7-7-X------7-7-7-X----|
1 |--5-5-5-5-5-7-7-7-7-------|---------7-7-7-X------7-7-7-X----|
  |--5-5-5-5-5-7-7-7-7-------|---0-0------------0-0------------|
  |--3-3-3-3-3-5-5-5-5-------|---0-0------------0-0------------|

  |--------------------------|---------------------------------|
  |--------------------------|---------------------------------|
  |--------0--------0-2------|---------------------------------|
2 |------4---4----4----------|-----(see 1)---------------------|
  |--------------------------|---------------------------------|
  |--3-3-------5-5-----------|---------------------------------|


     Your aim is to be deified

  |------------------------------------------|
  |---------7-7-7-X------7-7-7-X-------------|
  |---------7-7-7-X------7-7-7-X-------------|
  |---------7-7-7-X------7-7-7-X-------------|
  |---0-0------------0-0---------------------|
  |---0-0------------0-0---------------------|
       pm             pm


PRE-CHORUS


     Get yourself back home so the accolades can let you go

  |------------------------------------------------------------|
  |-----------0-------------0------------0------------0--------|
  |---------0---0---------2---2--------0---0--------2---2------|
  |-------0-------------0------------0------------0------------|
  |-----0-------------0------------5------------0--------------|
  |--3-------------5------------7-------------5----------------|


CHORUS

(2x)

           OH -WHOA WHOA        OH WOAH WOAH OH OH    
				         

  |----^-^-----------------^-^---------------|
  |--0-7-8-0-------------0-7-8-0-------------|
  |------------------------------------------|
1 |---------2-2-2-2-2-2---------2-2-2-2-2-2--|
  |---------2-2-2-2-2-2---------2-2-2-2-2-2--|
  |---------0-0-0-0-0-0---------0-0-0-0-0-0--|

  |----^-^-----------------^-^---------------|
  |--0-3-5-0-------------0-3-5-0-------------|
  |------------------------------------------|
2 |---------2-2-2-2-2-2---------2-2-2-2-2-2--|
  |---------2-2-2-2-2-2---------2-2-2-2-2-2--|
  |---------0-0-0-0-0-0---------0-0-0-0-0-0--|

      we seek relations           and you degrade us
   you don't have to be an asshole to be an artist

  |-----------------------------|-----------------------|
  |-----------------------------|-----------------------|
  |-----------------------------|-----------------------|
  |----9-9-9-9-9-9-9-9-9-9-9-9--|---7-7-7-7-7-7-7-7-7---|
1 |----9-9-9-9-9-9-9-9-9-9-9-9--|---7-7-7-7-7-7-7-7-7---|
  |----7-7-7-7-7-7-7-7-7-7-7-7--|---5-5-5-5-5-5-5-5-5---|

  |-----------------------------|-----------------------|
  |-----------------------------|-----------------------|
  |--------------9-11-11-11-11--|-----------7-9-9-9-9---|
2 |----9-9-9-9-9-X-X--X--X--X---|---7-7-7-7-X-X-X-X-X---|
  |----9-9-9-9-9-7-9--9--9--9---|---7-7-7-7-5-7-7-7-7---|
  |----7-7-7-7-7--------------------5-5-5-5-------------|




Second Verse
(One guitar only)


   When we were young we'd watch our idols act above it all

  |----------------------------------------------------0------|
  |----------------------------------------------------0------|
  |--5-5-5-5-5-----------------------------------------0------|
  |--5-5-5-5-5--5------------7------------2------------0------|
  |--3-3-3-3-3--5------------7------------2------------0------|
  |-------------3------------5------------0------------0------|

   Invented introverts all fighting for the sake of not

  |------------------------------------0----------------------|
  |------------------------------------0----------------------|
  |------------------------------------0----------------------|
  |---5-----------7-----------2--------0----------------------|
  |---5-----------7-----------2--------0----------------------|
  |---3-----------5-----------0--------0----------------------|

(now 2 guitars again)

      loking like us                    looking like us

 |---------------------------------------------------------------------|
 |---------------------------------------------------------------------|
 |---------------------------------------------------------------------|
1|---5-5-5-x---------7-7-7-x----------9-9-9-9-9-9-9-9-9-9-7-7-7-7-7-7--|
 |---5-5-5-x---------7-7-7-x----------9-9-9-9-9-9-9-9-9-9-7-7-7-7-7-7--|
 |---3-3-3-x---------5-5-5-x----------7-7-7-7-7-7-7-7-7-7-5-5-5-5-5-5--|

 |---------------------------------------------------------------------|
 |---------------------------------------------------------------------|
 |------------7-7-7-----------6-6-6------------------------------------|
2|------------7-7-7-----------7-7-7---9-9-9-9-9-9-9-9-9-9-7-7-7-7-7-7--|
 |------------------------------------9-9-9-9-9-9-9-9-9-9-7-7-7-7-7-7--|
 |------------------------------------7-7-7-7-7-7-7-7-7-7-5-5-5-5-5-5--|

 Don't forget who you need,yeah we paid your way and more(we paid)(your way)

 |--------------------------------------------------------------------------|
 |----------------------------------7-7-7-x---7-7-7-x----7-7-7-x----7-7-7-x-|
 |----------------------------------7-7-7-x---7-7-7-x----7-7-7-x----7-7-7-x-|
1|--5-5-5-5-5-5--7-7-7-7-7-7-7------7-7-7-x---7-7-7-x----7-7-7-x----7-7-7-x-|
 |--5-5-5-5-5-5--7-7-7-7-7-7-7--0-0--------0-0--------0-0-------0-0---------|
 |--3-3-3-3-3-3--5-5-5-5-5-5-5--0-0--------0-0--------0-0-------0-0---------|

 |--------------------------------------------------------------------------|
 |--------------------------------------------------------------------------|
 |--------------------------------------------------------------------------|
2|------4-5-4--------4-5-4-----------(see------- 1)-------------------------|
 |------------5------------2------------------------------------------------|
 |--3-3----------5-5--------------------------------------------------------|


PRE CHORUS (1X)
Get yourself back home and remember us

CHORUS (2X)
We seek relation and you degrade us
You don't have to be an asshole to be an artist

BRIDGE
      Dare to what we have been

  |-----3-------2/3-2---------0----------|
  |-----3-------3--------3------3--------|
  |-------------------------------4------|
  |--------------------------------------|
  |-----------0---------3------------0---|
  |--3-----------------------------------|

  |--------------------------------------|
  |--------------------------------------|
  |--------------------------------------|
  |-------16/17-16-14---14-16-17-16------|
  |-------------------17------------15---|
  |--------------------------------------|

     what we have been all our lives

  |-----3-------2/3-2---------0----------|
  |-----3-------3--------3------3--------|
  |-------------------------------4------|
1 |--------------------------------------|
  |-----------0---------3------------0---|
  |--3-----------------------------------|

  |--------------------------------------|
  |--------------------------------------|
  |--------------------------------------|
2 |-------16/17-16-14---14-16-17-19-17---|
  |-------------------17-----------------|
  |--------------------------------------|

     You may be outside     of one box 

  |-----3-------2/3-2----|---------0--------------------|
  |-----3-------3--------|----3------3------------------|
  |----------------------|-------------4----------------|
1 |----------------------|------------------------------|
  |-----------0----------|---3------------0-------------|
  |--3-------------------|------------------------------|

  |----------------------|------------------------------|
  |----------------------|------------------------------|
  |-16/17 16 14--14-16---|------------------------------|
2 |---- -------17------14|--16/17-16-14--14-------------|
  |----------------------|-------------17---------------|
  |----------------------|-------------------17-14------|

  but it doesn't mean there are no more boxes

  |-----3-------2/3-2---------0----------|
  |-----3-------3--------3------3--------|
  |-------------------------------4------|
1 |--------------------------------------|
  |-----------0---------3------------0---|
  |--3-----------------------------------|

  |--------------------------------------|
  |--------------------------------------|
  |--------------------------------------|
2 |-------16/17-16-14---14-16-17-19-17---|
  |-------------------17-----------------|
  |--------------------------------------|

   NO MORE BOXES!

  |-----------------------------------------------------------------|
  |-----------------------------------------------------------------|
  |------11-----7-----9/11--11----------------------------7-7-7-7---|
  |------7------7-----9/11--11------9-9-9-9-9-9-9-7-7-7-7-7-7-7-7---|
1 |-0-0------0----0-0---------------9-9-9-9-9-9-9-7-7-7-7-5-5-5-5---|
  |-0-0------0----0-0---------------7-7-7-7-7-7-7-5-5-5-5-----------|

  |-----------------------------------5-----------------------------|
  |-------7------------------------------7--------7---8---7---------|
  |------------7------11--12/14-14--7-------7------------------7----|
2 |---------7---------12--12----12--------------7-------------------|
  |-0-0-----------0-0-----------------------------------------------|
  |-0-0-----------0-0---0-------------------------------------------|


   no more boxes
  |-----------------------------------------------------------------|
  |-----------------------------------------------------------------|
  |------11-----7-----9/11--11----------------------------7-7-7-7---|
1 |------7------7-----9/11--11------9-9-9-9-9-9-9-7-7-7-7-7-7-7-7---|
  |-0-0------0----0-0---------------9-9-9-9-9-9-9-7-7-7-7-5-5-5-5---|
  |-0-0------0----0-0---------------7-7-7-7-7-7-7-5-5-5-5-----------|

  |-----------------------------------------------------------------|
  |------7-------------------------------7--8-----10----14---15-----|
  |-----------7-------11--12/14-14--7----------7-----------------14-|
2 |--------7----------12--12----12----------------------------------|
  |-0-0-----------0-0-----------------------------------------------|
  |-0-0-----------0-0---0-------------------------------------------|


   When we look up at you          When we look up at you

  |-----------------------------------------------------------------|
  |-----------------------------------------------------------------|
  |------11-----7-----9/11--11----------------------------7-7-7-7---|
  |------7------7-----9/11--11------9-9-9-9-9-9-9-7-7-7-7-7-7-7-7---|
1 |-0-0------0----0-0---------------9-9-9-9-9-9-9-7-7-7-7-5-5-5-5---|
  |-0-0------0----0-0---------------7-7-7-7-7-7-7-5-5-5-5-----------|

  |-----------------------------------5-----------------------------|
  |------7-------------------------------7--------7---8---7---------|
  |-----------7-------11--12/14-14--7-------7------------------7----|
2 |--------7----------12--12----12--------------7-------------------|
  |-0-0-----------0-0-----------------------------------------------|
  |-0-0-----------0-0---0-------------------------------------------|


   no more boxes                  we seek relation and you degrade us
  |-----------------------------------------------------------------|
  |-----------------------------------------------------------------|
  |------11-----7-----9/11--11----------------------------7-7-7-7---|
1 |------7------7-----9/11--11------9-9-9-9-9-9-9-7-7-7-7-7-7-7-7---|
  |-0-0------0----0-0---------------9-9-9-9-9-9-9-7-7-7-7-5-5-5-5---|
  |-0-0------0----0-0---------------7-7-7-7-7-7-7-5-5-5-5-----------|

  |-----------------------------------------------------------------|
  |------7-------------------------------7--8-----10----14---15-----|
  |------------7------11--12/14-14--7----------7-----------------14-|
2 |---------7---------12--12----12----------------------------------|
  |-0-0-----------0-0-----------------------------------------------|
  |-0-0-----------0-0---0-------------------------------------------|


OUTRO play the beginnig of Chorus


Tap to rate this tab
# A B C D E F G H I J K L M N O P Q R S T U V W X Y Z