Song name
# A B C D E F G H I J K L M N O P Q R S T U V W X Y Z

Polar Bear Club - Screams In Caves tab

-------------------------------------------------------------------------------
			     Screams In Caves - Polar Bear Club
-----------------------------------------------------------------------------

I know it's said a lot on this site, but this is my first tab. Any edits or if anyone 
knows the whole song, that'd be wonderful. My ear isn't the best, but maybe one day I'll 
get around to doing the rest

Enjoy!


Tuning: Standard

e|---------------------------------------------------------------------------|
B|---------------------------------------------------------------------------|
G|---------------------------------------------------------------------------|
D|1------3------5-------5----------------------------------------------------|
A|1--x14-3--x14-5--x14--5-x14------------------------------------------------|
E|3------5------7-------3----------------------------------------------------|
Do this once, then play the first 3 chords as many times as needed and end on G

Intro Riff
e|15-15-15--------------------------------------------------------------------|
B|--------13-13-13--------12-12-12-13-13-13-----------------------------------|
G|----------------12-12-12----------------------------------------------------|
D|----------------------------------------------------------------------------|
A|----------------------------------------------------------------------------|
E|----------------------------------------------------------------------------|
Do that twice, and then
e|---------------------------------------------------------------12-12-12-----|
B|12-12-12-13-13-13-15-15-15-12-12-12-13-13-13-12-12-12-13-13-13--------------|
G|----------------------------------------------------------------------------|
D|----------------------------------------------------------------------------|
A|----------------------------------------------------------------------------|
E|----------------------------------------------------------------------------|

e|---------------------------------------------------------------------------|
B|13-13-13-12-12-12----------------------------------------------------------|
G|---------------------------------------------------------------------------|
D|---------------------------------------------------------------------------|
A|---------------------------------------------------------------------------|
E|---------------------------------------------------------------------------|
************************************

| /   slide up
| \   slide down
| h   hammer-on
| p   pull-off
| ~   vibrato
| +   harmonic
| x   Mute note
| b   Bend
| pb  Pre-bend
| br  Bend release
| pbr Pre-bend release
| brb Bend release bend

************************************
Tap to rate this tab
# A B C D E F G H I J K L M N O P Q R S T U V W X Y Z