Song name
# A B C D E F G H I J K L M N O P Q R S T U V W X Y Z

Polar Bear Club - Eat Dinner Bury The Dog And Run tab

Song: Eat Dinner, Bury the Dog and Run
Band: Polar Bear Club
Album: Sometimes Things Just Disappear (2008)
Track 1

Enjoy!

Intro Pt. 1 (Guitar 1)

E--------------------------------------------------------|
B--------------------------------------------------------|
G--------------------------------------------------------|
D---------------------------------------0--------0-------|
A-----0-----0---------0-------0----0--2----0--2-----0----|
E---2-----2-----2--2-----2---5----------------3----------|

Intro Pt. 2 ("Two hundred gallons ago...") Repeat Once

E------0-----0-------0-----0-------0-----0--------------0--0--|
B------2-----0-------2-----0-------2-----0-----2--2-----2--2--|
G------2-----0-------2-----0-------2-----0-----2--2-----2--2--|
D------2-----2-------2-----2-------2-----2-----2--2-----2--2--|
A------0-----2-------0-----2-------0-----2-----0--0-----0--0--|
E---2~-2--2--0----2~-2--2--0----2~-2--2--0-----------2-----3--|

E------0-----0-------0-----0-------0-----0-------3------2-----|
B------2-----0-------2-----0-------2-----0-------3------3-----|
G------2-----0-------2-----0-------2-----0-------0------2-----|
D------2-----2-------2-----2-------2-----2-------0------0-----|
A------0-----2-------0-----2-------0-----2-------2------------|
E---2~-2--2--0----2~-2--2--0----2~-2--2--0-------3------------|

Verse 1 & 2 ("Walked in through my back door...") Play Twice

E-----------------------------------------------------------------|
B-----------------------------------------------------------------|
G----------2----------------------0----------------2--------------|
D-----x----2-------------0--2--4-----4--0-----x----2--------------|
A-----x----0----0--2--0-----------------------x----0-----0--2--0--|
E---2-x-2--2--------------------------------2-x-2--2--------------|

E---------------0-----0-----------------------------|
B---------------0-------3--0--3--5--3--0------------|
G---------------0-----------------------------------|
D----0--2--4----2-----------------------------------|
A---------------2-----------------------------------|
E---------------0-----------------------------------|

Chorus 1 & 2 (Yeah, I'm a fuck up...") Play Twice

E--------------------3--3--3---3--3----------------3--3--3---3--3-|
B-----------2--2--2--3--3--3---3--3-------2--2--2--3--3--3---3--3-|
G--------------4--4--0--0--0---0--0----------4--4--0--0--0---0--0-|
D--------4-----4--4--0--0--0---0--0-----4----4--4--0--0--0---0--0-|
A------2-------2--2--2--2--2---2--2---2------2--2--2--2--2---2--2-|
E--------------------3--3--3---3--3----------------3--3--3---3--3-|

E-----0--0--0---0--0-----3--3--3---3--3------|
B-----2--2--2---2--2-----3--3--3---3--3------|
G-----2--2--2---2--2-----0--0--0---0--0------|
D-----2--2--2---2--2-----0--0--0---0--0------|
A-----0--0--0---0--0-----2--2--2---2--2------|
E------------------------3--3--3---3--3------|

Interlude ("Today I reached into a shitter...")

E--------0--------0--------0--------0--------|
B--------2--------2--------2--------0--------|
G--------2--------2--------2--------0--------|
D--------2--------2--------2--------2--------|
A--------0--------0--------0--------2--------|
E--------2--------2--------2--------0--------|

Bridge 1 (Palm mute the Bm and Dmaj7)

E--------0--------0--------0--------0---------------------------------|
B--------3--------2--------3--------2---------------------------------|
G--------4--------2--------4--------2---------------------------------|
D--------4--------0--------4--------0--------2--2--2--2---5--5--5--5--|
A--------2--------0--------2--------0--------2--2--2--2---5--5--5--5--|
E--------------------------------------------0--0--0--0---3--3--3--3--|
Bridge 2 ("Nights like these won't be avoided...")

E--------0--------0--------3--------2--------|
B--------2--------3--------3--------3--------|
G--------2--------4--------0--------2--------|
D--------2--------4--------0--------0--------|
A--------0--------2--------2-----------------|
E--------------------------3-----------------|

E---------9---------9---------9----------9-----|
B-----10----10--10----10--10----10--10----10---|
G----------------------------------------------|
D----------------------------------------------|
A----------------------------------------------|
E----------------------------------------------|

Outro (Guitar 1)

E--------------------------------------------------------|
B--------------------------------------------------------|
G--------------------------------------------------------|
D---------------------------------------0--------0-------|
A-----0-----0---------0-------0----0--2----0--2-----0----|
E---2-----2-----2--2-----2---5----------------3----------|

End on a G chord.
Tap to rate this tab
# A B C D E F G H I J K L M N O P Q R S T U V W X Y Z