Song name
# A B C D E F G H I J K L M N O P Q R S T U V W X Y Z

Polaris - She Is Staggering tab

-------------------------------------------------------------------------------
			     She is Staggering - Polaris
-------------------------------------------------------------------------------
Tabbed by: renmo92
Email:rmorales_777@hotmail.com

Tuning: Standard Tuning

e|-----------------------------------------------------------------------------------|
B|---5------5------7---5------------------5---------5--------------------------------|
G|---6------------------------7----7----------------6--------------------------------|
D|---7----------------------------------------------7--------------------------------|
A|-----------------------------------------------------------------------------------|
E|-----------------------------------------------------------------------------------|
Intro                   Just repeat this sequence

e|---3------3----------5-------5----------------------------------------------------|
B|---3------3----------5-------5----------------------------------------------------|
G|---4------4----------6-------6----------------------------------------------------|
D|-- 5------5----------7-------7----------------------------------------------------|
A|-- 5------5----------7-------7----------------------------------------------------|
E|-- 3------3----------5-------5----------------------------------------------------|
Pre-Chorus

e|-----------------------------------------------------------------------------------|
B|-----------------------------------------------------------------------------------|
G|---1--------1-------2------3------4------4-----------------------------------------|
D|---2--------2-------3------4------5------5-----------------------------------------|
A|---2--------2-------3------4------5------5-----------------------------------------|
E|-----------------------------------------------------------------------------------|
Chorus

e|------------------------------------------------------------------------------------|
B|------------------------------------------------------------------------------------|
G|---1------1------2------3-----4------5------6---------------------------------------|
D|---2------2------3------4-----5------6------7---------------------------------------|
A|---2------2------3------4-----5------6------7---------------------------------------|
E|------------------------------------------------------------------------------------|
Chorus Part 2
Synth. solo    Just repeat the intro in this part

This is my first tab, but I think it's quite accurate.
I hope it helps.

| /  slide up
| \  slide down
| h  hammer-on
| p  pull-off
| ~  vibrato
| +  harmonic
| x  Mute note
Tap to rate this tab
# A B C D E F G H I J K L M N O P Q R S T U V W X Y Z