Song name
# A B C D E F G H I J K L M N O P Q R S T U V W X Y Z

Police - Truth Hits Everybody tab

Help us improve GuitareTab! Take a short survey!
Band:  Rage
Album: Missing Link
Song:  Truth Hits Everybody

Copyright (c)  (Noise) (1993)
Version 1.0 - (13/08/06)

Transcribed By: Steve
Email:          stephen.elvidge1@ntlworld.com


.  - palm mute           /  - slide up to
\  - slide down to       ~  - vibrato
h  - hammer on           b  - Bend
p  - pull off            Suffixes for bend
t  - tap                 f  - full bend    h - half bend
ph - pinched harmonic    q  - quarter bend t - tap bend
*  - see comment         ^  - Hold bend    r release bend
x  - Stuccatto           ~  - vibrato bend
,  - slight palm mute    () - ghost note, sustained note
"  - tremolo note        <> - harmonic
pb - pre bend

Tuning E A D G B E


 Main Riff

    [PM]
|---------------------|
|---------------------|
|---------------------|
|-6----------9--4/5/--|
|-4-444-4-7--7--2/3/--|
|---------5-----------| Rpt 3 X

    [PM]
|------------------------------------|
|------------------------------------|
|------------------------------------|
|-6----------7---------(7)--------X\-|
|-4-444-4-7--5---------(5)--------X\-|
|---------5--------------------------|


 VERSE

     [--PM--]    [--PM--]
|------------------------|
|------------------------|
|------------------------|
|-6-6--------------------|
|-4-4-66-6-6-7-7-6-77-6--|
|------------5-5---55----|

     [--PM--]    [--PM--]
|------------------------|
|------------------------|
|------------------------|
|-6-6----------7-7--7-6--|
|-4-4-66-6-6-7-7---------|
|------------5-5---5-----|


     [--PM--]    [--PM--]
|------------------------|
|------------------------|
|------------------------|
|-6-6--------------------|
|-4-4-66-6-6-7-7-6-77-6--|
|------------5-5---55----|


     [PM]  PM    
|----------------------|
|----------------------|
|----------------------|
|-6-6----6-------------|
|-4-4-66-6-6-7-7-7-7-7-|
|------------5-5-5-5-5-|

 Bridge
    PM   PM    PM   PM    PM  PM     PM   PM
|-----------------------------------------------|
|------------5----5---5------------5----5---5---|
|------------2----2---2------------2----2---2---|
|-2----2---2-2----2---2-2----2---2-2----2---2---|
|-0-00-0-0-0---00---0---0-00-0-0-0---00---0-----|
|-----------------------------------------------|

|------------------------------------------|
|------------------------------------------|
|------------------------------------------|
|------------------------------------------|
|-2-3/4--4--2-3/4--4--2-3/4--4--2-3/4--4---|
|-0-1/2--2--0-1/2--2--0-1/2--2--0-1/2--2---|

 Chorus is Main Riff

 Rpt Verse and Bridge
                                             pick scrape
|---------------------------------------------------------|
|---------------------------------------------------------|
|-----------------7-------------7-7-----------------------|
|-----9----(9)----7-7----(7)----7-7-9----(9)----\-\-------|
|-5-5-7----(7)------5----(5)--------7----(7)-----\-\------|
|---------------------------------------------------------|

    [-----PM-----] [------PM-----]
|-------------------------------------------------------|
|-------------------------------------------------------|
|---------------------------------9----(9)---9-9--------|
|-----------------7---------------9----(9)---9-9-7-9p7--|
|-4---------------5-5-5-5-5-5-5-5-7----(7)---7-7--------|
|-2-2-2-2-2-2-2-2-----------------7----(7)--------------|


    [------PM----]  
|-------------------------------------------------------|
|-------------------------------------------------------|
|-------------------------------------------------------|
|-----------------7-7-7-7-7-7-7-7-7-7-7-7-7-7-7-7-7-7---|
|-4---------------5-5-5-5-5-5-5-5-5-5-5-5-5-5-5-5-5-5---|
|-2-2-2-2-2-2-2-2-----------------5-5-5-5-5-5-5-5-5-5---|

 Drum fill

 Backing for solo

      PM       [-PM-] 
|--------------------|
|-----------0--------|
|-----------2--------|
|-6-6---4---2--------|
|-4-4-6-6-x-0--0-0-0-|
|--------------------| Rpt 8 X


    PM   PM    PM   PM    PM  PM     PM   PM
|-----------------------------------------------|
|------------5----5---5------------5----5---5---|
|------------2----2---2------------2----2---2---|
|-2----2---2-2----2---2-2----2---2-2----2---2---|
|-0-00-0-0-0---00---0---0-00-0-0-0---00---0-----|
|-----------------------------------------------|

 Guitar solo

 Guitar 1
            ~~~~                ~~~
[-------------------------------------------------------------------|
[-------------------------------------------------------------------|
[-9p8----8------\------------8------/--------------9p8-trilll-------|
[-----11------------------------------------------------------------|
[-------------------------------------------------------------------|
[-------------------------------------------------------------------|
[Guitar 2
[          ~~~~~                ~~~~
[-------------------------------------------------------------------|
[-------------------------------------------------------------------|
[-6p4---4-------\------------4------/-------------------------------|
[-----6-------------------------------------------------------------|
[-------------------------------------------------------------------|
[-------------------------------------------------------------------|

 Guitar 1
  ~~~~                                                ~~~~~~~~~~~                   
[-------------------------------------------------------------------|
[--------------------------------------------------12---------------|
[-4---\--------9p8----8---------------------9p8---------------------|
[------------------11---10-10-------------------10------------------|
[-------------------------------------------------------------------|
[-------------------------------------------------------------------|
[Guitar 2
[                           ph~~~~~~~
[-------------------------------------------------------------------|
[-------------------------------------------------------------------|
[---------------------------4---------------------------------------|
[-------------------------------------------------------------------|
[-------------------------------------------------------------------|
[-------------------------------------------------------------------|

 Guitar 1
                                       h     h h     h h     h h
[--------------------------------------------------------------------|
[--------------------------------------------------------------------|
[-9p8----8-------------------9p8-----8-9p8p6-8-9p8p6-8-9p8p6-8-9p8p6-|
[-----11---10-10-----------------11----------------------------------|
[--------------------------------------------------------------------|
[--------------------------------------------------------------------|
[Guitar 2
[             ph~~~~~~~
[--------------------------------------------------------------------|
[--------------------------------------------------------------------|
[--------------------------------------------------------------------|
[-------------4------------------------------------------------------|
[--------------------------------------------------------------------|
[--------------------------------------------------------------------|

     ~~~~~~~~~~~~~~~~~~~~~~~~~~~~~~~~~~~~~~~~~~~
|----------------------------------------------------|
|-12-b--------------------------------------------r--|
|----------------------------------------------------|
|----------------------------------------------------|
|----------------------------------------------------|
|----------------------------------------------------|

 Rpt Bridge
 Rpt Chorus 2 x

 [---------------------------PM----------------------------------]
|-----------------------------------------------------------------|
|-----------------------------------------------------------------|
|-----------------------------------------------------------------|
|-7-7-7-7-7-7-7-7-7-7-7-7-7-7-7-7-7-7-7-7-7-7-7-7-7-7-7-7-7-7-7-7-|
|-5-5-5-5-5-5-5-5-5-5-5-5-5-5-5-5-5-5-5-5-5-5-5-5-5-5-5-5-5-5-5-5-|
|-----------------------------------------------------------------|


|------|
|------|
|------|
|-7--\-|
|-5--\-|
|-5--\-|




END

Related for Truth Hits Everybody tab