Song name
# A B C D E F G H I J K L M N O P Q R S T U V W X Y Z

Police - Every Breath You Take tab

Every breath you take

(the Police)

Tone: A+

Tabbed by Fabio (Lux)


e|--------------------------------------|
b|--------------------------------------|
g|----------6-----------------6---------|
d|------9-----9---9-------9-----9---9---|   A+
a|----7---7-----7-------7---7-----7-----|
E|--5-----------------5-----------------|

e|--------------------------------------|
b|--------------------------------------|
g|----------2-----------------2---------|
d|------6-----6---6-------6-----6---6---|   F#-
a|----4---4-----4-------4---4-----4-----|
E|--2-----------------2-----------------|

e|--------------------------------------|
b|------5-----------------7-------------|
g|----------7-----------------9-----9---|
d|----7-------7---7-----9-------9-------|   D+ ... E+
a|--5-----5-----5-----7-----7-----7-----|
E|--------------------------------------|

e|--------------------------------------|
b|--------------------------------------|
g|----------6-----------------6---------|
d|------9-----9---9-------9-----9---9---|   A+
a|----7---7-----7-------7---7-----7-----|
E|--5-----------------5-----------------|

Every breath you take... every move you make... etc...

e|--------------------------------------|
b|--------------------------------------|
g|----------6-----------------6---------|
d|------9-----9---9-------9-----9---9---|   A+
a|----7---7-----7-------7---7-----7-----|
E|--5-----------------5-----------------|

e|--------------------------------------|
b|--------------------------------------|
g|----------2-----------------2---------|
d|------6-----6---6-------6-----6---6---|   F#-
a|----4---4-----4-------4---4-----4-----|
E|--2-----------------2-----------------|

e|--------------------------------------|
b|------5-----------------7-------------|
g|----------7-----------------9-----9---|
d|----7-------7---7-----9-------9-------|   D+ ... E+
a|--5-----5-----5-----7-----7-----7-----|
E|--------------------------------------|

e|--------------------------------------|
b|--------------------------------------|
g|----------2-----------------2---------|
d|------6-----6---6-------6-----6---6---|   F#-  (opened eyes!)
a|----4---4-----4-------4---4-----4-----|
E|--2-----------------2-----------------|

Every single day.. every words you say... etc...

e|--------------------------------------|
b|--------------------------------------|
g|----------6-----------------6---------|
d|------9-----9---9-------9-----9---9---|   A+
a|----7---7-----7-------7---7-----7-----|
E|--5-----------------5-----------------|

e|--------------------------------------|
b|--------------------------------------|
g|----------2-----------------2---------|
d|------6-----6---6-------6-----6---6---|   F#-
a|----4---4-----4-------4---4-----4-----|
E|--2-----------------2-----------------|

e|--------------------------------------|
b|------5-----------------7-------------|
g|----------7-----------------9-----9---|
d|----7-------7---7-----9-------9-------|   D+ ... E+
a|--5-----5-----5-----7-----7-----7-----|
E|--------------------------------------|

e|--------------------------------------|
b|--------------------------------------|
g|----------6-----------------6---------|
d|------9-----9---9-------9-----9---9---|   A+
a|----7---7-----7-------7---7-----7-----|
E|--5-----------------5-----------------|

Oh.. can't you see...

e|------------------------------------------|
b|------5-----------------------------------|
g|----------7----------------7----5---------|
d|----7-------7---7--------7--------7---7---|   D+ ... D7
a|--5-----5-----5-----5(?)-----5------5-----|
E|------------------------------------------|

e|--------------------------------------|
b|--------------------------------------|
g|----------6-----------------6---------|
d|------9-----9---9-------9-----9---9---|   A+
a|----7---7-----7-------7---7-----7-----|
E|--5-----------------5-----------------|

e|--------------------------------------------|
b|--------------------------------------------|
g|-----------8--------------------8-----------|
d|------11-----11---11-------11-----11---11---|   B+
a|----9----9------9--------9----9------9------|
E|--7--------------------7--------------------|

e|--------------------------------------|
b|------7-----------------7-------------|
g|----------9-----------------9-----9---|
d|----9-------9---9-----9-------9-------|   E+
a|--7-----7-----7-----7-----7-----7-----|
E|--------------------------------------|

Every move you make... every vow you brake... etc...

e|--------------------------------------|
b|--------------------------------------|
g|----------6-----------------6---------|
d|------9-----9---9-------9-----9---9---|   A+
a|----7---7-----7-------7---7-----7-----|
E|--5-----------------5-----------------|

e|--------------------------------------|
b|--------------------------------------|
g|----------2-----------------2---------|
d|------6-----6---6-------6-----6---6---|   F#-
a|----4---4-----4-------4---4-----4-----|
E|--2-----------------2-----------------|

e|--------------------------------------|
b|------5-----------------7-------------|
g|----------7-----------------9-----9---|
d|----7-------7---7-----9-------9-------|   D+ ... E+
a|--5-----5-----5-----7-----7-----7-----|
E|--------------------------------------|

e|--------------------------------------|
b|--------------------------------------|
g|----------2-----------------2---------|
d|------6-----6---6-------6-----6---6---|   F#-
a|----4---4-----4-------4---4-----4-----|
E|--2-----------------2-----------------|


Since you've gone I've been lost without a trace
I dream at night I can only see your face


 fret: 8               fret: 10

e|--o-----  ||        e|--o-----  ||
b|--o-----  ||        b|--o-----  ||
g|--o--o--  ||        g|--o--o--  ||
d|--o--o--  ||   F+   d|--o--o--  ||   G+
a|--o-----  ||        a|--o-----  ||
E|--o-----  \/        E|--o-----  \/


I look around but it's you I can't replace
I feel so cold, and I long for your embrace


 fret: 8               fret: 10

e|--o-----  ||        e|--o-----  ||
b|--o-----  ||        b|--o-----  ||
g|--o--o--  ||        g|--o--o--  ||
d|--o--o--  ||   F+   d|--o--o--  ||   G+
a|--o-----  ||        a|--o-----  ||
E|--o-----  \/        E|--o-----  \/

I keep crying baby, baby...

e|--o-----  ||
b|--o-----  ||
g|--o--o--  ||
d|--o--o--  ||   F+
a|--o-----  ||
E|--o-----  \/

... please

e|--------------------------------------|
b|--------------------------------------|
g|----------6-----------------6---------|
d|------9-----9---9-------9-----9---9---|   A+
a|----7---7-----7-------7---7-----7-----|
E|--5-----------------5-----------------|

e|--------------------------------------|
b|--------------------------------------|
g|----------2-----------------2---------|
d|------6-----6---6-------6-----6---6---|   F#-
a|----4---4-----4-------4---4-----4-----|
E|--2-----------------2-----------------|

e|--------------------------------------|
b|------5-----------------7-------------|
g|----------7-----------------9-----9---|
d|----7-------7---7-----9-------9-------|   D+ ... E+
a|--5-----5-----5-----7-----7-----7-----|
E|--------------------------------------|

e|--------------------------------------|
b|--------------------------------------|
g|----------2-----------------2---------|
d|------6-----6---6-------6-----6---6---|   F#-
a|----4---4-----4-------4---4-----4-----|
E|--2-----------------2-----------------|

e|--------------------------------------|
b|--------------------------------------|
g|----------6-----------------6---------|
d|------9-----9---9-------9-----9---9---|   A+
a|----7---7-----7-------7---7-----7-----|
E|--5-----------------5-----------------|

e|--------------------------------------|
b|--------------------------------------|
g|----------2-----------------2---------|
d|------6-----6---6-------6-----6---6---|   F#-
a|----4---4-----4-------4---4-----4-----|
E|--2-----------------2-----------------|

e|--------------------------------------|
b|------5-----------------7-------------|
g|----------7-----------------9-----9---|
d|----7-------7---7-----9-------9-------|   D+ ... E+
a|--5-----5-----5-----7-----7-----7-----|
E|--------------------------------------|

e|--------------------------------------|
b|--------------------------------------|
g|----------6-----------------6---------|
d|------9-----9---9-------9-----9---9---|   A+
a|----7---7-----7-------7---7-----7-----|
E|--5-----------------5-----------------|

Oh.. can't you see...

e|------------------------------------------|
b|------5-----------------------------------|
g|----------7----------------7----5---------|
d|----7-------7---7--------7--------7---7---|   D+ ... D7
a|--5-----5-----5-----5(?)-----5------5-----|
E|------------------------------------------|

e|--------------------------------------|
b|--------------------------------------|
g|----------6-----------------6---------|
d|------9-----9---9-------9-----9---9---|   A+
a|----7---7-----7-------7---7-----7-----|
E|--5-----------------5-----------------|

e|--------------------------------------------|
b|--------------------------------------------|
g|-----------8--------------------8-----------|
d|------11-----11---11-------11-----11---11---|   B+
a|----9----9------9--------9----9------9------|
E|--7--------------------7--------------------|

e|--------------------------------------|
b|------7-----------------7-------------|
g|----------9-----------------9-----9---|
d|----9-------9---9-----9-------9-------|   E+
a|--7-----7-----7-----7-----7-----7-----|
E|--------------------------------------|

Every move you make... every vow you break... etc...

e|--------------------------------------|
b|--------------------------------------|
g|----------6-----------------6---------|
d|------9-----9---9-------9-----9---9---|   A+
a|----7---7-----7-------7---7-----7-----|
E|--5-----------------5-----------------|

e|--------------------------------------|
b|--------------------------------------|
g|----------2-----------------2---------|
d|------6-----6---6-------6-----6---6---|   F#-
a|----4---4-----4-------4---4-----4-----|
E|--2-----------------2-----------------|

Every smile you fake... every claim you stake...
I'll be watching you...

e|--------------------------------------|
b|------5-----------------7-------------|
g|----------7-----------------9-----9---|
d|----7-------7---7-----9-------9-------|   D+ ... E+
a|--5-----5-----5-----7-----7-----7-----|
E|--------------------------------------|

e|--------------------------------------|
b|--------------------------------------|
g|----------2-----------------2---------|
d|------6-----6---6-------6-----6---6---|   F#-
a|----4---4-----4-------4---4-----4-----|
E|--2-----------------2-----------------|

Every move you make... every step you take... 
I'll be watching you...

e|--------------------------------------|
b|------5-----------------7-------------|
g|----------7-----------------9-----9---|
d|----7-------7---7-----9-------9-------|   D+ ... E+
a|--5-----5-----5-----7-----7-----7-----|
E|--------------------------------------|

e|--------------------------------------|
b|--------------------------------------|
g|----------2-----------------2---------|
d|------6-----6---6-------6-----6---6---|   F#-
a|----4---4-----4-------4---4-----4-----|
E|--2-----------------2-----------------|

e|--------------------------------------|
b|--------------------------------------|
g|----------2-----------------2---------|
d|------6-----6---6-------6-----6---6---|   F#-
a|----4---4-----4-------4---4-----4-----|
E|--2-----------------2-----------------|


ENDING


I'll be watching you...
Every breath you take...
Every move you make...
Every bond you break...
Every step you take...

e|--------------------------------------|
b|--------------------------------------|
g|----------6-----------------6---------|
d|------9-----9---9-------9-----9---9---|   A+
a|----7---7-----7-------7---7-----7-----|
E|--5-----------------5-----------------|

e|--------------------------------------|
b|------------------------5-------------|
g|----------2-----------------7---------|
d|------6-----6---6-----7-------7---7---|   F#- ... D+
a|----4---4-----4-----5-----5-----5-----|
E|--2-----------------------------------|

I'll be watching you...
Every single day...
Every word you say...
Every game you play...
Every night you stay...

e|--------------------------------------|
b|--------------------------------------|
g|----------6-----------------6---------|
d|------9-----9---9-------9-----9---9---|   A+
a|----7---7-----7-------7---7-----7-----|
E|--5-----------------5-----------------|

e|--------------------------------------|
b|------------------------5-------------|
g|----------2-----------------7---------|
d|------6-----6---6-----7-------7---7---|   F#- ... D+
a|----4---4-----4-----5-----5-----5-----|
E|--2-----------------------------------|

etc...
etc...
etc...

(ad infinitum)


Bye!

Tabbed by Lux (Fabio)

e-mail: 000lux000@tiscali.it
Tap to rate this tab
 
# A B C D E F G H I J K L M N O P Q R S T U V W X Y Z