Song name
# A B C D E F G H I J K L M N O P Q R S T U V W X Y Z

Polkadot Cadaver - Haunted Holiday tab

Highlighted       Show chord diagrams
Haunted Holiday - Polkadot Cadaver www.myspace.com/polkadotcadaver
==================================
----an excuse for tab by Mazztadawn--partsman772004@yahoo.ca
	
track: http://apps.facebook.com/ilike/artist/Polkadot+Cadaver/track/Haunted+Holiday

 Lyrics/Chord Changes at the bottom.

verse
=========	    
	    am                       E
	e|--0--0--0---0---0--0--0----0---0-0---0-0-0-|
	b|--1--1--1---1---1--1--1----0---0-0---0-0-0-|
	g|--2--2--2---2---2--2--2----1---1-1---1-1-1-|  x 4
	d|--2--2--2---2---2--2--2----2---2-2---2-2-2-|
	a|--0--0--0---0---0--0--0----2---2-2---2-2-2-|
	e|---------------------------0---0-0---0-0-0-|

            Ridin on a train .............
Chorus	
======
            F#                    D         E                 
	e|--2---2--2---2--2--2----2---2-----0---0--|
	b|--2---2--2---2--2--2----3---3-----0---0--|
	g|--3---3--3---3--3--3----2---2-----1---1--|  x2
	d|--4---4--4---4--4--4----0---0-----2---2--|
	a|--4---4--4---4--4--4----0---0-----2---2--|
	e|--2---2--2---2--2--2--------------0---0--|  

            Is that the best..........

Bridge/Ending                                                          
=============                                                          
            
	    E5                       am                      		
	e|---------------------------0---0-0---0-0-0-|
	b|--9--9--9---9---9--9--9----1---1-1---1-1-1-|
	g|--9--9--9---9---9--9--9----2---2-2---2-2-2-|
	d|--9--9--9---9---9--9--9----2---2-2---2-2-2-|
	a|--7--7--7---7---7--7--7----0---0-0---0-0-0-|
	e|-------------------------------------------|

            Where do we go from here.........

                                                         
                          
            bm               E5  F#5   G5   A5     		
	e|--2--2-2---2-2-2----------------------|
	b|--3--3-3---3-3-3---5----7----8----10--|
	g|--4--4-4---4-4-4---4----6----7----9---| x4
	d|--4--4-4---4-4-4---2----4----5----7---|
	a|--2--2-2---2-2-2----------------------|
	e|--------------------------------------|

            


Lyrics/Chord Changes
====================

1st Verse
---------

am                         E
Riding on a train that's a future runaway

am                         E
sleepin in the desert on a haunted holiday

am                     E
and now you're miles behind me

am            E
just like the setting sun

Chorus
------

F#                           D E
Is that the best that you can do?

F#
who needs a deathwish?

     D             E
when all I want is you

Verse 2
-------

am                                E
If this is all a dream then don't bother waking me

am                        E
just let me sleep in this comfortable coma

am                       E
and as you're standing in the sun

am                     E
I'll be the ghost just hiding in your shadow


Chorus
------ 

F#                      D E
Is that the best you can do?

F#
who needs a deathwish?

     D             G
when all I want is you

F#                              D E
there's nothing more that we can do

F#                            D              E (hold)
than listen to the rain while staring at the moon


Bridge/Ending (hold last note of Chorus a bar before starting)
--------------------------------------------------------------

E5           am
Where do we go from here?

        bm
on this desolate highway

   E5  F#5 G5  A5   E5
so far a---way from home

        am
here we go again

bm                     E5    F#5 G5  A5 E5
chasing the ghost on a haunt-ed  hol-i--day

          am
blistered by the sun

        bm
you are venomous

      E5   F#5 G5   A5 E5
and I know to  stay a--way

          am               bm
grains of sand are slippin through my hand

       E5 F#5   G5   A5 E5
as the mo-ments pass a--way


Enjoy!! 
=======
Tap to rate this tab
# A B C D E F G H I J K L M N O P Q R S T U V W X Y Z