Song name
# A B C D E F G H I J K L M N O P Q R S T U V W X Y Z

Polkadot Cadaver - Haunted Holiday tab

-------------------------------------------------------------------------------
			     Haunted Holiday - Polkadot Cadaver
-------------------------------------------------------------------------------
Tabbed by: waldo
Email: waldodog3@hotmail.com

Tuning: Standard

Verse: Play four times

e|------0-00-0--00-0------0-00-0--00-0----------------------------------------|
B|------2-22-2--22-2------0-00-0--00-0----------------------------------------|
G|------2-22-2--22-2------0-00-0--00-0----------------------------------------|
D|------2-22-2--22-2------2-22-2--22-2----------------------------------------|
A|------0-00-0--00-0------2-22-2--22-2----------------------------------------|
E|------------------------0-00-0--00-0----------------------------------------|


Chorus: Play twice, then after second verse play it four times

e|------2-22-2--22-2-----2--2-----0--0--------------------------------|
B|------2-22-2--22-2-----3--3-----0--0--------------------------------|
G|------2-22-2--22-2-----2--2-----1--1--------------------------------|
D|------4-44-4--44-4-----0--0-----2--2--------------------------------|
A|------4-44-4--44-4-----0--0-----2--2--------------------------------|
E|------2-22-2--22-2--------------0--0--------------------------------|


Bridge: Play four times

e|------7-7-7-77-7----2-22-22-2---2-22-22-2-----0----2----5----7------------|
B|------8-8-8-88-8----3-33-33-3---4-44-44-4-----0----2----5----7------------|
G|------9-9-9-99-9----4-44-44-4---4-44-44-4-----0----2----6----7------------|
D|------9-9-9-99-9----4-44-44-4---4-44-44-4-----2----4----7----9------------|
A|------7-7-7-77-7----2-22-22-2---2-22-22-2-----2----4----7----9------------|
E|----------------------------------------------0----2----5----7------------|

Ending Chord:

e|-----7----------------------------------------------------------------------|
B|-----8----------------------------------------------------------------------|
G|-----9----------------------------------------------------------------------|
D|-----9----------------------------------------------------------------------|
A|-----7----------------------------------------------------------------------|
E|----------------------------------------------------------------------------|


Solo work played during bridge:

e|---------------------------------------------------------------------------------|
B|---------------10----------------------------------------------------------------|
G|-----12-9--8-11--11-9--8---------------------------------------------------------|
D|-------------------------10-(9)------------10-9----------------------------------|
A|---------------------------------9-10-12-------10-9------------------------------|
E|-------------------------------10-------------------8-7--3-2--(0)----------------|

e|-------------------------------------------------------------0---------------------|
B|---------------10--------------------------------------------0---(ending chord)----|
G|-----12-9--8-11--11-9--8-------------------------------------0---------------------|
D|-------------------------10-------------10-9-----------------2---------------------|
A|---------------------------------9-10-12----10-9-------------2---------------------|
E|-------------------------------10----------------8-7--3-2----0---------------------|

This is also played on top, though I'm not sure if it's correct or not.

e|----------7-8--11-12--11-8-7------------2-3-5-8--7-3-2---------------------|
B|---------7-----------------------------3-----------------------------------|
G|---------------------------------------------------------------------------|
D|---------------------------------------------------------------------------|
A|---------------------------------------------------------------------------|
E|---------------------------------------------------------------------------|
Tap to rate this tab
 
# A B C D E F G H I J K L M N O P Q R S T U V W X Y Z