Song name
# A B C D E F G H I J K L M N O P Q R S T U V W X Y Z

Polvo - Can I Ride tab

Long ago there existed a Polvo tab site. The site is gone now, but I'm trying to put up 
of the old tabs for all the fans who want to jam on their songs.

-----------------------------------------------------------------------------

tuning: DAAGDD

intro:

D----------------------------------------------|
D----------------------------------------------|
G----------------------------------------------|
A-----------------------------14---------------|
A---------12-------------12--------12----------|
D--11/12---------11/12-------------------------|

play that 4 times, then play this chord a bunch

D-------------|
D-----13------|
G-----13------|
A-----12------|
A----(0)------|
D-------------|

then it's on to the main riff:
(only chords represented)
D---9----------------------------|
D---9----------------------------|
G---9----------------------------|
A---7-----4-----11------7---9----|
A---7-----4-----11------7---9----|
D---7-----4-----11------7---9----|

then, it's on to this bit (all tremolo picked)
D----------------------------------------------------------------------|
D----------------------------------------------------------------------|
G-----14p13--13----14--14---13---13----14p13--13----14---16---14---13--|
A----------------------------------------------------------------------|
A----------------------------------------------------------------------|
D----------------------------------------------------------------------|
Tap to rate this tab
# A B C D E F G H I J K L M N O P Q R S T U V W X Y Z