Song name
# A B C D E F G H I J K L M N O P Q R S T U V W X Y Z

Polyenso - The Means tab

This song is in standard, capo 2. This is my first time tabbing and it may not be 100% accurate.


E---------------------------------------------------|
B-------------0---------------0---------------------|
G--0--------2---2--0--------2---2--2----0-----------|
D----2--0h2----------2--0h2----------3----0---------|
A--3--------0------3--------0------3----2-----------|
E---------------------------------------------------|

Don't wanna feel like I'm in love with all this money for the rest of my life and Yeah...
E---------------------------------------------------|
B-------------0-------------------------------------|
G--0--------2---2--2----0---------------------------|
D----2--0h2----------3----0-------------------------|
A--3--------0------3----2---------------------------|
E---------------------------------------------------|

You wanna move in just move in I could throw all of the payment back with it, Yeah...
E---------------------------------------------------|
B-------------0-------------------------------------|
G--0--------2---2--2----0---------------------------|
D----2--0h2----------3----0-------------------------|
A--3--------0------3----2---------------------------|
E---------------------------------------------------|

Few for the lation, Few for the lation. Why is it for you or is it for the money?
E---------------------------------------------------|
B-------------0---------------0---------------------|
G--0--------2---2--0--------2---2--2----0-----------|
D----2--0h2----------2--0h2----------3----0---------|
A--3--------0------3--------0------3----2-----------|
E---------------------------------------------------|

Why's it for the money? Why is it for the money? Why? Is it for you or is it for me?
E----------------------------------------------------------|
B-------------0---------------0-------------------------0--|
G--0--------2---2--0--------2---2--2----0----0--------2---2|
D----2--0h2----------2--0h2----------3----0----2--0h2------|
A--3--------0------3--------0------3----2----3--------0----|
E----------------------------------------------------------|

(At this point the F chord is played in a pattern).
   F
E--1---------------------------|
B--1---------------------------|
G--2---------------------------|
D--3---------------------------|
A--3---------------------------|
E--1---------------------------|
Tap to rate this tab
# A B C D E F G H I J K L M N O P Q R S T U V W X Y Z