Song name
# A B C D E F G H I J K L M N O P Q R S T U V W X Y Z

Polyphonic Spree - Section 37 Youre Golden tab

This is the main Piano part (ish)
I'm not really sure about anything beyond the verse,
but there was nothing else online so I thought I might as well share what I can.
Please let me know of any mistakes.

Verse
e|----------------|---------------|---------------|---------------|
B|----------------|---------------|---------------|---------------|
G|--8-----8-------|-7-----7-------|-6-----6-------|-5-----5-------|
D|----8-----8---8-|---8-----8---8-|---6-----6---6-|---6-----6---6-|
A|--6---6-----6---|-5---5-----5---|-4---4-----4---|-3---3-----3---|
E|----------------|---------------|---------------|---------------|

Chorus
e|----------------|---------------|---------------|---------------|
B|----------------|---------------|---------------|---------------|
G|--8-----8-------|-8-----8-------|-6-----6-------|-6-----6-------|
D|----8-----8---8-|---8-----8---8-|---6-----6---6-|---6-----6---6-|
A|--6---6-----6---|-6---6-----6---|-4---4-----4---|-4---4-----4---|
E|----------------|---------------|---------------|---------------|

Bridge
e|----------------|---------------|---------------|---------------|
B|----------------|---------------|---------------|---------------|
G|--3-----3-------|-6-----6-------|-5-----5-------|-8-----8-------|
D|----3-----3---3-|---6-----6---6-|---6-----6---6-|---8-----8---8-|
A|--1---1-----1---|-4---4-----4---|-3---3-----3---|-6---6-----6---|
E|----------------|---------------|---------------|---------------|

It's not what you do in a day
It's not what you wanted to say
It's not the colour in your hair
It's not the clothes that you wear

Bear in mind, you're golden
Caught up in life,
You've stolen, my heart.

It's not the car that you drive
It's not your phone with an I
It's not your Facebook likes
It's not your Instagram pride

Bear in mind, you're golden
Caught up in life,
You've stolen, my heart.

Objectively speaking i believe you are the moment
When order falls to its knees
Of shared devotion

It's not your party girl yell
It's not the way that you spell
It's not the way that you dance
It's the way that you're holding my hand

Bear in mind, you're golden
Caught up in life,
You've stolen, my heart.
Tap to rate this tab
# A B C D E F G H I J K L M N O P Q R S T U V W X Y Z