Song name
# A B C D E F G H I J K L M N O P Q R S T U V W X Y Z

Polysics - Electric Surfin Go Go tab

Polysics
Electric Surfin' Go Go
Tabbed by Rizo299 (rizo299(at)hotmail.com)

you can work out the strumming patterns on your own, they're simple enough.

EDIT: I made this tab quite a while ago, if you spot anything that needs
changing be sure to mention it in a comment =]

--10 second synth intro


intro/chorus riff


e|------------------------|
B|------------------------|
G|-5----7----9---10----12-|
D|-5----7----9---10----12-|  X3
A|-3----5----7---8-----10-|
E|------------------------|

   v1
e|-----------------------|
B|-----------------------|
G|-5-4-5-----5-4-5-----5-|
D|-5-4-5-3-5-5-4-5-3-5-5-|   X 1
A|-3-2-3-3-5-3-2-3-3-5-3-|
E|-------1-3-------1-3---|

intro/chorus riff
e|------------------------|
B|------------------------|
G|-5----7----9---10----12-|
D|-5----7----9---10----12-|  X2
A|-3----5----7---8-----10-|
E|------------------------|

     v2
e|-----------------------|
B|-----------------------|
G|-5-4-5-----5-4-5-----5-|
D|-5-4-5-3-5-5-4-5-3-5-5-|   X 1
A|-3-2-3-3-5-3-2-3-3-5-3-|
E|-------1-3-------1-3---|

 pre-chorus


e|----------------------|
B|----------------------|
G|----------------------|
D|-3-5---3--5--7--------|   X 1
A|-3-5---3--5--7--------|
E|-1-3---1--3--5--------|

intro/chorus riff
e|------------------------|
B|------------------------|
G|-5----7----9---10----12-|
D|-5----7----9---10----12-|  X2
A|-3----5----7---8-----10-|
E|------------------------|

mid chorus riff
e|-------------------------|
B|-------------------------|
G|-2-----5-4-5-4--2--------|
D|-2-2-3-5-4-5-4--2-2-3-5--|   X1
A|-0-2-3-3-2-3-2--0-2-3-5--|
E|---0-1------------0-1-3--|


intro/chorus riff
e|------------------------|
B|------------------------|
G|-5----7----9---10----12-|
D|-5----7----9---10----12-|  X1
A|-3----5----7---8-----10-|
E|------------------------|

  =Solo bit=


 pre-chorus


e|----------------------|
B|----------------------|
G|----------------------|
D|-3-5---3--5--7--------|   X 1
A|-3-5---3--5--7--------|
E|-1-3---1--3--5--------|


intro/chorus riff
e|------------------------|
B|------------------------|
G|-5----7----9---10----12-|
D|-5----7----9---10----12-|  X3
A|-3----5----7---8-----10-|
E|------------------------|


mid chorus riff
e|-------------------------|
B|-------------------------|
G|-2-----5-4-5-4--2--------|
D|-2-2-3-5-4-5-4--2-2-3-5--|   X1
A|-0-2-3-3-2-3-2--0-2-3-5--|
E|---0-1------------0-1-3--|


intro/chorus riff
e|------------------------|
B|------------------------|
G|-5----7----9---10----12-|
D|-5----7----9---10----12-|  X5
A|-3----5----7---8-----10-|
E|------------------------|
Tap to rate this tab
# A B C D E F G H I J K L M N O P Q R S T U V W X Y Z