Song name
# A B C D E F G H I J K L M N O P Q R S T U V W X Y Z

Polysics - Black Out Fall Out tab

This song has no TAB up yet so i thought I'd take a while to post one, but I've
only got round to the intro so far. This is for the POLYSICS OR DIE!!! version,
as the other version is pretty much all synth and keyboards.

e----------------------------------------------------------------------------|
b----------------------------------------------------------------------------|
g--17-17-17-17-17-16-16-16-17-17-17-17-17-19-19-19---------------------------|
D--17-17-17-17-17-16-16-16-17-17-17-17-17-19-19-19---------------------------|
A--15-15-15-15-15-14-14-14-15-15-15-15-15-17-17-17---------------------------|
E----------------------------------------------------------------------------|

Play this twice, and then the synth comes in, but I transposed it for guitar.

e----------0-----------------------------------------------------------------|
b----1---3---3---1---3-------------------------------------------------------|
g--0---2-------0---2---------------------------------------------------------|
D----------------------------------------------------------------------------|
A----------------------------------------------------------------------------|
E----------------------------------------------------------------------------|

Play this four times and the the "do do do do do-do do do"'s kick in :)

e--3--1--0--1--0-----3--1--0--1--0--8----------------------------------------|
b-----------------1----------------------------------------------------------|
g----------------------------------------------------------------------------|
D----------------------------------------------------------------------------|
A----------------------------------------------------------------------------|
E----------------------------------------------------------------------------|

If you want to play the older (and in my opinion, better) version, this is the
tune that was replaced by singing at the beginning.

The power chords appear throughout the song, but the verses are mainly all
bass, and so are the choruses, so this may be all you need for the song,
couples with a bass tab.

This is my first ever tab for something I haven't written myself, so apologies
if I have made any mistakes, if you find any, leave a comment and I'll see
what i can do.

Enjoy! :)
Tap to rate this tab
 
# A B C D E F G H I J K L M N O P Q R S T U V W X Y Z