Song name
# A B C D E F G H I J K L M N O P Q R S T U V W X Y Z

Polysics - Commodoll tab

Intro

e|-------------------------------------------------|
B|-------------------------------------------------|
G|-------------------------------------------------|
D|----------------0--2--0--------------------------|   (2x)
A|-0--0--3--0--3-----------------2-----2--3--2-----|
E|-------------------------3--3-----3-----------3--|


Verse

"What is love..."
e|-------------------------------------------------|
B|-------------------------------------------------|
G|-------------------------------------------------|
D|----------------0--2--0--------------------0-----|
A|-0--0--3--0--3-----------------2-----2--3--------|
E|-------------------------3--3-----3--------------|
Repeat until:

"Oh S.A.D. appeals to me..."
e|--------------------------------------------------|
B|--------------------------------------------------|
G|-5---5--5--5--4--5---9--9--9---7---9--------------|
D|-5---5--5--5--4--5---9--9--9---7---9--------------|
A|-3---3--3--3--2--3---7--7--7---5---7--------------|
E|--------------------------------------------------|


After the 2nd chorus:

"I wanna be sad"
e|---------------------|
B|---------------------|
G|---10-----10---------|
D|---10-----10---------|
A|---9------9----------|
E|---------------3---4-|


Chorus

"We have not had..."
e|---------------------------|
B|---------------------------|
G|--5----5----9--9----9--9---|
D|--5----5----9--9----9--9---|
A|--3----3----7--7----7--7---|
E|---------------------------|
Not sure though... ^^


"Day by day"
e|-------------------|
B|-------------------|
G|-5----5---7---7----|
D|-5----5---5---5----|
A|-3----3---5---5----|
E|-------------------|


Outro

e|-------------------------------------------------|
B|-------------------------------------------------|
G|----------------0--2--0--------------------0-----|
D|-0--0--3--0--3-----------------2-----2--3--------|
A|-------------------------3--3-----3--------------|
E|-------------------------------------------------|

It's my first tab and I'm not quite sure about some parts, but I hope you enjoy my it! ;)

Linka
Tap to rate this tab
# A B C D E F G H I J K L M N O P Q R S T U V W X Y Z