Song name
# A B C D E F G H I J K L M N O P Q R S T U V W X Y Z

Polysics - Poly-farm tab

e|-----------------------------------------------------|
B|-----------------------------------------------------|
G|-----------------------------------------------------|
D|-----------------------------------------------------|   (2x)
A|------------2--3--3--2--------------2--3--3--2-------|
E|---0--0--3--------------3--0--0--3--------------0----|


e|-----------------------------------------------------|
B|-----------------------------------------------------|
G|-----------------------------------------------------|
D|------------2--3--3--2--------------2--3--3--2-------|   
A|---0--0--3--------------3--0--0--3--------------0----|
E|-----------------------------------------------------|


e|-----------------------------------------------------|
B|-----------------------------------------------------|
G|-----------------------------------------------------|
D|-----------------------------------------------------|   (2x)
A|------------2--3--3--2--------------2--3--3--2-------|
E|---0--0--3--------------3--0--0--3--------------0----|


e|--------------------------------------------12---|
B|--------------------------------------------12---|
G|-------------------------------------------------|
D|---9--9--9----9--8--8--8--7--7--7----------------|
A|---9--9--9----9--8--8--8--7--7--7----------------|
E|---7--7--7----7--7--7--7--5--5--5----------------|

Then repeat

Tap to rate this tab
 
# A B C D E F G H I J K L M N O P Q R S T U V W X Y Z