Song name
# A B C D E F G H I J K L M N O P Q R S T U V W X Y Z

Polysics - Code 4 tab

E|---------------------------------------------------------|
B|---------------------------------------------------------|
G|---------------------------------------------------------|
D|---888-8--8--7--7------------------8--8--8--7--7---------|
A|-------------------8--10--8--7--8-----------------8------|
E|---------------------------------------------------------|

E|---------------------------------------------------------|
B|---------------------------------------------------------|
G|---------------------------------------------------------|
D|---------------------------------------------------------|
A|---7-8-7----------7-8-7-----------7--8--10-10------------|
E|---------10-8-10---------10--8-10------------------------|

E|---------------------------------------------------------|
B|---------------------------------------------------------|
G|---------------------------------------------------------|
D|---7h8--8--7h8--8--7h8--10-10-10--8-8--7-7---------------|
A|--------------------------------------------8------------|
E|---------------------------------------------------------|

E|---------------------------------------------------------|
B|---------------------------------------------------------|
G|---------------------------------------------------------|
D|---8h10--10--8h10--10--8h10--12-12-12--10-10--8-8--7-----|
A|---------------------------------------------------------|
E|---------------------------------------------------------|

E|---------------------------------------------------------|
B|---------------------------------------------------------|
G|---------------------------------------------------------|
D|---8h10--10--8h10--10--8h10--12-12-12--10--12-12--10--12-|
A|---------------------------------------------------------|
E|---------------------------------------------------------|

E|---------------------------------------------------------|
B|---------------------------------------------------------|
G|---------------------------------------------------------|
D|---8\7--8--7------------7-8-7----------------------------|
A|--------------10--8-10---------10-8-7-8-----10--8--------|
E|-----------------------------------------8---------------|

E|---------------------------------------------------------|
B|---------------------------------------------------------|
G|---------------------------------------------------------|
D|---------7-8-10--8--7------------------------------------|
A|---8-10--------------------------------------------------|
E|---------------------------------------------------------|
Tap to rate this tab
 
# A B C D E F G H I J K L M N O P Q R S T U V W X Y Z