Song name
# A B C D E F G H I J K L M N O P Q R S T U V W X Y Z

Polysics - Making Sense tab

Intro
|---------------Palm Mute-------------------|
      B5         A5        D5         E5
E|------------------------------------------------|
B|------------------------------------------------|
G|------------------------------------------------|
D|---4-4-4------2-2-2-----7-7-7------9-9-9--------|    x2
A|---2-2-2------0-0-0-----5-5-5------7-7-7--------|
E|------------------------------------------------|
     |-x2-|     |-x2-|    |-x2-|     |-x2---------|

Verse
    B5        A5         D5         E5
E|-------------------------------------------|
B|-------------------------------------------|
G|---4---------2----------7----------9-------|
D|---4---------2----------7----------9-------|    x6
A|---2---------0----------5----------7-------|
E|-------------------------------------------|
    |x8|      |x8|       |x8|       |x8|

Chorus
      D5     A5       B5     F#5         D5      A5     B5
E|----------------------------------|--------------------------------|
B|----------------------------------|--------------------------------|
G|---7--7----2--2----4--4-----------|---7--7----2--2-----4-----------|
D|---7--7----2--2----4--4----4--4---|---7--7----2--2-----4-----------|    x2
A|---5--5----0--0----2--2----4--4---|---5--5----0--0-----2-----------|
E|---------------------------2--2---|--------------------------------|
                                                        |x8|

Repeat verse and chorus till the end.
Tap to rate this tab
# A B C D E F G H I J K L M N O P Q R S T U V W X Y Z