Pomaranca - Takoj Se Dava Dol tab

Highlighted       Show chord diagrams
Intro:



E|----------------------------------|
H|----------------------------------|
G|--9-9-9-9-9-9-7-7-6-6-6-7-7-7-7-7-|
D|--9-9-9-9-9-9-7-7-7-7-7-5-5-5-5-7-| 
A|----------------------------------|
E|----------------------------------|

Če si na tleh punca,
pridem ob treh
Če si na mizi,
pridem easy
Če daš kaj nase,
boš lepša sama zase
A če si naga
se takoj lahko dol dava



E                 D G
Takoj se dava dol
(4x)



D
Vzemi si čas
               A  G  A
in ne misli naglas
D      
govori brez besed
               A  G  A
ki jih ne poznaš



D
Povej vse kar veš
             A  G  A
in česar ne smeš
D
pozabi na ljudi,
                A  G  A
ki govorijo ti kdo si



Chorus:
E                 D G
Takoj se dava dol 
(4x)



E|----------------------------------|
H|----------------------------------|
G|-------------7-----7-6--6--4-6----|  4x
D|-------------7-----7-7--7--5-7----| 
A|----------------------------------|
E|-0-0-0-0-0-0---0-0----------------|

Sonček je skuštran,
ker se boji noči
in krokodilčki
so zbežali ti iz oči

Ja punca
grema midva na en krog
greva pokažem ti,
da kdo je tvoj gospod



A
Pusti hudiču,
                D  G  D
da te v sedlo posadi
A
on naredi življenje
              D  G  D
lepše kot se zdi



H
Lahko na mizi
C
lahko na tleh
C#
lahko si naga
      G G   A A    D     
za ljubezen to ni greh


Chorus again


(To confirm this is a real band)
http://www.myspace.com/pomarancaband - Official myspace page
http://www.youtube.com/watch?v=fk4L08awbK8 - The song
Tap to rate this tab
 
# A B C D E F G H I J K L M N O P Q R S T U V W X Y Z