Song name
# A B C D E F G H I J K L M N O P Q R S T U V W X Y Z

Pomegranates - In The Kitchen tab

Band:Pomegranates
Song:"In The Kitchen"

Standard Tuning
EADGBE

Key of G

Intro/Verse

e-------------------------------------------------|
B-------------------------------------------------|
G---12-12-12-12--11-11-11-11-9-9-9-9--7----7------|
D---------------------------------------9----9----|
A-------------------------------------------------|
E-------------------------------------------------|

Chorus
 
e------------------------------------------------|
B------------------------------------------------|
G------------------------12-11-9-7---------------|
D-----------9--10-9------------------------------|
A----10------------------------------------------|
E------------------------------------------------|

Bridge

E---------|--------------|
B---------|--------------|
G---------|--------------|
D---------|--------------|
A----10---|---9-10-------|
E---------|--------------|

palm  mute

		x2
e--------------------------------------|--------------------------|----------------------------|
B--------------------------------------|--------------------------|----------------------------|
G-----12---------12---12---12----------|-----16-----16--16--16----|------17----17--17--17------| 
D-----12---------12---12---12----------|-----16-----16--16--16----|------17----17--17--17------|
A-----10---------10---10---10----------|-----14-----14--14--14----|------15----15--15--15------|
E--------------------------------------|--------------------------|----------------------------|


Repeat Chorus


Ending
e------------------------------------------------------------|
B------------------------------------------------------------|
G---12-------11--------9------------7------7-----------------|
D------------------------------------------9--------9--------|
A------------------------------------------------------------|
E------------------------------------------------------------|


Pretty simple, just listen to it to get the rythm

http://www.lujorecords.com/artist.php?artistid=65
Tap to rate this tab
# A B C D E F G H I J K L M N O P Q R S T U V W X Y Z