Song name
# A B C D E F G H I J K L M N O P Q R S T U V W X Y Z

Pomeroy - Indecency tab

Help us improve GuitareTab! Take a short survey!
Intro Guitar Part: Repeat 4X
e|--8---8--8--8--8--8--8--8--8--8--8--8--8--8-|
B|-11--11--8--8--8--8--8--8--8--8--8--8--8--8-|
G|--8---8--8--8--8--8--8--8--8--8--8--8--8--8-|
D|--8---8--8--8--8--8--8-12-12--8--8--8--8--8-|
A|-10--10-10-10-10-10-10-10-10-10-10-10-10-10-|
E|--8---8--8--8--8--8--8--8--8--8--8--8--8--8-|

End of Intro on 4th time:
e|--8---8--8--8--8--8--8--8--8--8---8-|
B|-11--11--8--8--8--8--8--8--8-11--11-|
G|--8---8--8--8--8--8--8--8--8--8---8-|
D|--8---8--8--8--8--8--8-12-12--8---8-|
A|-10--10-10-10-10-10-10-10-10-10--10-|
E|--8---8--8--8--8--8--8--8--8--8---8-|

Pre-Chorus guitar: Repeat 2x
e|---------------8-8-8------------10----------------10-10-10-------------|
B|---------------8-8-8------------10----------------10-10-10-------------|
G|-----------------------------------------------------------------------|
D|-----------------------------------------------------------------------|
A|------6--------------------------8---6-6-8p6-------8--8--8-------------|
E|---6h8--8-6-8---------1-1-1-3/4-------------6-8-------------77-66-44-3-|

Verse:

Similar to the Pre-Chorus guitar, but i don't have it down yet.

Chorus:

e|--------------------------------------|
B|--------------------------------------|
G|--------------------------------------|
D|--------------------------------------|
A|--10-10--X--8-5-5--X--8-5-5--X--6-8-8-|
E|---8--8--X--6-3-3--X--6-3-3--X--4-6-6-|
Related for Indecency tab