Song name
# A B C D E F G H I J K L M N O P Q R S T U V W X Y Z

Pompa Bensin - Jangan Lupa Namaku chords

Highlighted       Show chord diagrams
http://www.facebook.com/POMPABENSIN
Artis    : Pompa Bensin
Lagu     : Jangan Lupa Namaku (Tema Drama Ramadhan Terakhir)
Tab Oleh : Junkgoat

Intro

e----2-----|----2-----|----2-----|----5-----|----2-----|
b----3-----|----2-----|----3-----|----3-----|----3-----|
g----4-----|----2-----|----4-----|----2-----|----4-----| Piano part
d----4-----|----4-----|----4-----|----4-----|----4-----|
a----------|----------|----------|----------|----------|
E----------|----------|----------|----------|----------|


e|--2--0--2--|-----2-----|--3--0--2---|----------|
b|--3--2--3--|-----2-----|--0--2--3---|----------|
g|--2--2--4--|-----2-----|--0--2--4---|----------|
a|--0--2--4--|-----4-----|--0--2--4---|----------|
a|-----------|-----------|------------|----------|
E|-----------|-----------|------------|----------|

Bm
Walau aku tidak bersamamu
          Fm
Jangan engkau lupakan diriku
       Bm
Walau aku tiada di sisimu
         Fm
Jangan engkau lupakan namaku
    Em
Kerana
        Fm
Aku mengingati mu
    Em
Kerana
          Fm
Aku menícintaimu
Bm
Andai aku Bisa bertemumu
         Fm
Dengan senyum ku tadah syukurku
       Bm
Andai aku bisa menyentuhmu
     Fm
Air mata pasti deras gugur
    Em/G
Kerana
         Fm/A
Aku merindui mu
    Em
Kerana aku sentiasa
    F
Menyintaimu oh sepenuh hati
      Bm
Walau kamu Jauh di mataku
        Fm
Jangan aku hilang dalam kalbu
    Bm  Bb7     A  Ab7
Saat kamu samar mengingati
        F
Jangan aku terus kau lupakan
    G                  A
Kerana aku Sentiasa mengingatimu
    G
Kerana aku
               F                  Bm
Sentiasa menyayangimu oh kekasih hati

(Little classic melody by flute arragement to guitar part)
e|---------------------|-----------------------------------------|
b|-2h3-2--3h5-3--2-----|-2h3-2--3h5-3--2-------------------------|
g|------------------4--|------------------4--2--1-----1---2---4--|
d|---------------------|---------------------------4-------------|
a|---------------------|-----------------------------------------|
E|---------------------|-----------------------------------------|

Bm
Andai aku bisa memelukmu
       Fm
Pasrah aku tabah diujimu
       Bm
Andai aku bisa dicintai
         Fm
Dengan rela menyerahkan hati
    G
Kerana
         A
Aku merindui mu
        C                    A
Hmmm Kerana aku sentiasa menyintaimu

Ending (i'm not sure)
F5 G5 A5  A#5 B5 C5 B5
Tap to rate this tab
# A B C D E F G H I J K L M N O P Q R S T U V W X Y Z