Guitaretab - guitar tabs
Song name
# A B C D E F G H I J K L M N O P Q R S T U V W X Y Z

Pompeii - Relative Is Relative tab

Artist:Pompeii
Song:Relative is Relative
This is my first tab, but this should be close. Hope you enjoy!

Tuning: Standard
Intro:
e|----------------------------------------------------------------------|
B|----8--8-5--3----8--12-8--8-10--5--3--3-5-3-1-------------------------|
G|--5------------5------------------------------------------------------|
D|----------------------------------------------------------------------|
A|----------------------------------------------------------------------|
E|----------------------------------------------------------------------|

Verse 1:
e|----------------------------------------------------------------------|
B|-------------------------------0------------------------------0-------|
G|------0---------------0------0--------0--------------0------0---------|
D|---2-------2--2----2-------2-------2-------2--2----2------2-----------|
A|-3-------3-------3-------3-------3-------3-------3------3-------------|
E|----------------------------------------------------------------------|

Chorus:
e|----------------------------------------------------------------------|
B|----------------------------------------------------------------------|
G|-5-5-5-5-5-5-5-5------------------------------------------------------|
D|-5-5-5-5-5-5-5-5-5-5-5-5-5-5-5-5-10-10-10-10-10-10-10-10--(repeat x1)-|
A|-3-3-3-3-3-3-3-3-5-5-5-5-5-5-5-5-10-10-10-10-10-10-10-10--------------|
E|-----------------3-3-3-3-3-3-3-3-8--8--8--8--8--8--8--8---------------|

Intro
[ Tab from: http://www.guitaretab.com/p/pompeii/84812.html ]
Verse 2 (repeat verse 1)

Chorus (repeat x4)

Verse 3
e|----------------------------------------------------------------------|
B|----------------------------------------------------------------------|
G|-5----5--5-5-5--------------------------------------------------------|
D|-5----5--5-5-5-(repeat 5/5/3 until alternate ending)------------------|
A|-3----3--3-3-3--------------------------------------------------------|
E|----------------------------------------------------------------------|

Ending:
e|----------------------------------------------------------------------|
B|----------------------------------(repeat then fade until end of song)|
G|-5-5-5-5-5-5-5-5-----------------5-5-5-5-5-5-5-5-7-7-7-7-9-9-9-9------|
D|-5-5-5-5-5-5-5-5-5-5-5-5-5-5-5-5-5-5-5-5-5-5-5-5-7-7-7-7-9-9-9-9------|
A|-3-3-3-3-3-3-3-3-5-5-5-5-5-5-5-5-3-3-3-3-3-3-3-3-5-5-5-5-7-7-7-7------|
E|-----------------3-3-3-3-3-3-3-3--------------------------------------|

                               or

Ending:
e|----------------------------------------------------------------------|
B|-5-6-8-5-6-3-1-1-1-1-1-1-1-5-6-8-5-6-3-1------------------------------|
G|-----------------------------------------0-(repeat then fade till end)|
D|----------------------------------------------------------------------|
A|----------------------------------------------------------------------|
E|----------------------------------------------------------------------|

Ceillo ends song.

Well I hope you like it. Write if you have any comments
Related for Relative Is Relative tab
Advertisement will be closed in 10 seconds