Song name
# A B C D E F G H I J K L M N O P Q R S T U V W X Y Z

Poncho - Please Me tab

x4
e------------------------------------|
B------------------------------------|
G-------2-------2-------2-------2----|
D-----3---3---3---3---3---3---3---3--|
A---5-------5-------5-------5--------|
E------------------------------------|

x2
e------------------------------------|
B------------------------------------|
G------------------------------------|
D-------2-------2-------2-------2----|
A-----3---3---3---3---3---3---3---3--|
E---5-------5-------5-------5--------|


       Dm
I īve been wasting my
I īve been wasting my
I īve been wasting my time
          Am
Makes me glad I found you
       Dm
I īve been wasting my
I īve been wasting my
I īve been wasting my time
          Am
Makes me glad I found you
         Gm
Itīs the way that I can feel it, the way that I can feel it
    Dm
no sense of me
          Gm
Itīs the way that I can feel it, the way that I can feel it
          
         F
I can please me girl
please me girl,
  Dm
please me for a while.

           F
If I can please me girl
please me girl,
  Dm
please me for a while.

           F
Come on, please me girl
please me girl,
  Dm
please me for a while.

           F
Come on, please me girl
please me girl,
  Dm
please me baby...

      Gm
All I want to be...



This song in youtube: http://www.youtube.com/watch?v=GqqwIE6WKkc
Band page: http://poncho.com.ar/
Tap to rate this tab
# A B C D E F G H I J K L M N O P Q R S T U V W X Y Z