Song name
# A B C D E F G H I J K L M N O P Q R S T U V W X Y Z

Pond - You Broke My Cool tab

Song: You Broke My Cool
Band: Pond
From the album 'Beard, Wives, Denim'
http://www.facebook.com/pondling

Tabbed by L.A Rai


E---------------------------------------------------------|
B-10------------------------------------------------------|
G-12b-12-12-14-12-10-12-9-10-9-7-9-5-h7-5/----------------|
D---------------------------------------------------------|
A---------------------------------------------------------|
E---------------------------------------------------------|


E-------------------------------------------------------------|
B-12--12-----12-13-12----12-----------------------------------|
G-14b-14b-14----------14----14-12-14-10-12-10-9-10-9/---------|
D-------------------------------------------------------------|
A-------------------------------------------------------------|
E-------------------------------------------------------------|

Verse:

E-8---12--8---6-6-6-6---8------------|
B-8---13--8---6-6-6-6---8------------|
G-9---14--9---7-7-7-7---9------------|
D-10--14--10--8-8-8-8-9-10-----------|
A-10--12--10--8-8-8-8-9-10-----------|
E-8-------8---6-6-6-6-7-8------------|

E--------------------1-1-1------------------------------|
B---5-----5-----5----1-1-1------------------------------|
G----5-----5-----5---2-2-2------------------------------|
D-7---7-5---5-4---4--3-3-3------------------------------|
A--------------------3-3-3------------------------------|
E--------------------1-1-1------------------------------|

Chorus:

E---0----0-----0-----3-----1----------------------------|
B----1----1-----1-----3-----1----4-----8----------------|
G-----0----0-----0-----4-----2----5-----9---------------|
D----------------------------------6-----10-------------|
A-3----2-----0------------------------------------------|
E------------------3-----1-----4-----8------------------|


E------------------------------------------------------|
B------------------------------------------------------|
G---------------5--------------------------------------|
D-----------5-7----------------------------------------|
A-----3-5-7--------------------------------------------|
E-3-5--------------------------------------------------|


E----8-----8------5-----3---1--4--8--------------------|
B-----8-----8------5-----3--1--4--8--------------------|
G------9-----9------5-----4-2--5--9--------------------|
D-10-----9------7-----5-----3--6--10-------------------|
A---------------------------3--6--10-------------------|
E---------------------------1--4--8--------------------|


- Thanks for checking out the tab & please listen to my original music if you get a
chance :)

http://soundcloud.com/laura-rai
Tap to rate this tab
# A B C D E F G H I J K L M N O P Q R S T U V W X Y Z