Song name
# A B C D E F G H I J K L M N O P Q R S T U V W X Y Z

Pond - Moth Wings tab

Pond - Moth Wings
Beard, Wives, Denim

Intro:

E|------------------------|
B|--14----------------12--|
G|--14----------------9---|
D|--14----------------9---|
A|--12--------------------|
E|------------------------|

Verse:
Guitar follows this bass melody, listen for timing

G|----------------------------------------------------|
D|-------------------------------------5--------------|
A|--5--7--5--7--5--7--5-------------------7--5--7--7--|
E|-----------------------7--6--5--5-------------------|


"Ah Ah Ah Ah"
e|--------------|
B|--------------|
G|--7--7--7--9--|
D|--7--7--7--9--|
A|--5--5--5--7--|
E|--------------|

Main bit of awesome:
Guitar/Bass
e|--------------------------------------|
B|--------------------------------------|
G|--------------------------------------|
D|--------------------------------------|
A|--------7--6-----------7--9--7--9--7--|
E|--7--7--------7--5--5-----------------|


Guitar 2
Fast picking tremolo
e|--------------------------------------|
B|--12--10--9--10--9--7--9--7--4--5--7--|
G|--------------------------------------|
D|--------------------------------------|
A|--------------------------------------|
E|--------------------------------------|

No solo yet sorry :(

Any suggestions please email jasonploeg@yahoo.com.au
Tap to rate this tab
# A B C D E F G H I J K L M N O P Q R S T U V W X Y Z