Song name
# A B C D E F G H I J K L M N O P Q R S T U V W X Y Z

Pond - Eye Pattern Blindness tab

Hey,
This is my attempt at tabbing 'Eye Pattern Blindness' by Pond, off of 'Beard, Wives,
Denim' (2012). Got it all by ear & by watching their live performance of the song on KEXP
radio (check it out on YouTube), so sorry for any mistake there might be.
I created the tab using http://www.guitartabcreator.com.
I won't be covering the WHOLE song, there are a few parts that I didn't manage to pull
off, and some were covered by other tabs on UG.
Anyway, let's get down to business :




(/) Slide Up  (\) Slide Down  (h) Hammer On  (p) Pull Off  (b) Bend (r) Release (v) 
Vibrato (~) Linger

=Intro= (Distorted Guitar)

E|--------------0~--------------------------------------------------|
B|----------------------------------0~------------------------------|
G|----------------------11------------------------------------------|
D|--11----------------------12--------------------------------------|
A|------12----------------------14--------14--14--14--14--/16-------|
E|----------14------------------------------------------------12~---|



E|------------------|
B|------------------|
G|-----4--4--2--4~--|
D|------------------|
A|--2---------------|
E|------------------|

This part goes on for a few times.

=Interlude= (Clean Guitar)

E|--0---0---0---0/0----0----0-----0----0--0-----|
B|--8---8---8---8/10---10---10---10\---5--5-----|
G|--9---9---9---9/11---11---11---11\---6--6-----|
D|-10--10--10--10/12---12---12---12\---7--7-----| X 3
A|----------------------------------------------|
E|----------------------------------------------|

Guitar 1 (Distorted Guitar) :

E|------------------------------------------------------|
B|--17--17--17--17\15--15--15--15\14--14--14--14\12~----|
G|------------------------------------------------------|
D|------------------------------------------------------|
A|------------------------------------------------------|
E|------------------------------------------------------|

E|--8---8---8---8/10---10---10---10----5--5--------|
B|--8---8---8---8/10---10---10---10\---5--5--------|
G|--9---9---9---9/11---11---11---11\---6--6--------|
D|-10--10--10--10/12---12---12---12\---7--7--------|
A|-10--10--10--10/12---12---12---12----7--7--------|
E|--8---8---8---8/10---10---10---10----5--5--------|

E|--8---8---8---8/10---10---10---10----5--5--------|
B|--8---8---8---8/10---10---10---10\---5--5--------|
G|--9---9---9---9/11---11---11---11\---6--6--------|
D|-10--10--10--10/12---12---12---12\---7--7--------|
A|-10--10--10--10/12---12---12---12----7--7--------|
E|--8---8---8---8/10---10---10---10----5--5--------|

Guitar 2 (Distorted Guitar) :

E|------------------------------------------------------|
B|------------------------------------------------------|
G|------------------------------------------------------|
D|--14--14--14--14\12--12--12--12\11--11--11--11\9~-----|
A|------------------------------------------------------|
E|------------------------------------------------------|

E|-----------------------------------------------------------|
B|-----------------------------------------------------------|
G|-----------------------------------------------------------|
D|--17-17-17-17h19p17\16-16-16-16\14-14-14-14\12-12-12-12/14-|
A|-----------------------------------------------------------|
E|-----------------------------------------------------------|

E|----------------------------------------------------------|
B|----------------------------------------------------------|
G|----------------------------------------------------------|
D|-14-14-14/16-16-16-16b18b16-16-16~------------------------|
A|----------------------------------------------------------|
E|----------------------------------------------------------|


Both parts repeat for a while and then go back to intro.
Second time they play the 'Interlude', they skip the clean guitar part, and go right to
the distorted parts of the 'Interlude'.


Hope it helps, tell me your opinion in the comments! :)
Tap to rate this tab
 
# A B C D E F G H I J K L M N O P Q R S T U V W X Y Z