Song name
# A B C D E F G H I J K L M N O P Q R S T U V W X Y Z

Pond - Midnight Mass At The Market Street Payphone tab

Artist: Pond
Song: Midnight Mass (At the Market St. Payphone)
From the album 'Hobo Rocket'

Tabbed by: L.A Rai

(Verses)
E----------------------------------------------------|
B-10----10----10------9---9---9----------------------|
G----11----11----11-----9---9---9-11----11----11-9---|
D------------------------------------11----11--------|
A----------------------------------------------------|
E----------------------------------------------------|


E--------------------------|
B--------------------------|
G-----------9--9-----------|
D-9-9-10-11--11---12-10----|
A--------------------------|
E--------------------------|

(Chorus)
E----------------|
B----------------|
G-------------5--|
D-3-2-2---3-2-5--|
A-3-2-2---3-2-3--|
E-1-0-0---1-0----|
(Repeat x 7)
E----------------------------|
B----------------------------|
G----------------------------|
D-3-3-2-2---3-5-7-9-11-------|
A-3-3-2-2---3-5-7-9-11-------|
E-1-1-0-0---1-3-5-7-9--------|


(Outro)

E-7--7--4--4--5--5--3--3--4--4--3--3--5--5--4--4--------|
B--0--0--0--0--0--0--0--0--0--0--0--0--0--0--0--0-------|
G-------------------------------------------------------|
D-------------------------------------------------------|
A-------------------------------------------------------|
E-------------------------------------------------------|
(Repeat x 2 before Guitar 2 comes in)

Guitar 2 (play until end):
E-------/14----------/14----------/14------------------|
B-14-12-----15-14-12-----15-14-12-----15-14-12---------|
G----------------------------------------------14-13---|
D------------------------------------------------------|
A------------------------------------------------------|
E------------------------------------------------------|


E-7--7--4--4--5--5--3--3--4--4--3--3--5--5--4--4-------|
B--0--0--0--0--0--0--0--0--0--0--0--0--0--0--0--0------|
G------------------------------------------------------|
D------------------------------------------------------|
A------------------------------------------------------|
E------------------------------------------------------|
(This plays in background)

...and if you get a chance, check out my original music:

http://soundcloud.com/laura-rai

Thanks :)
Tap to rate this tab
 
# A B C D E F G H I J K L M N O P Q R S T U V W X Y Z