Song name
# A B C D E F G H I J K L M N O P Q R S T U V W X Y Z

Pond - Elegant Design chords

Highlighted       Show chord diagrams
-----------------------------------------------------------------------------
                         Pond - Elegant Design
-----------------------------------------------------------------------------
Tabbed by: Marcus Marchal (Warflojd)
E-mail: mackan_003_94@hotmail.com

Tuning: Standard
Capo: 1

I chose not to include the lyrics in this tab because I could not find any lyrics that
were correct and it's really hard to hear what the singer Nick Allbrook is singing
(especially during some parts). If you listen to the song, you'll hear where the chords 
are supposed to be played! I wrote the tab in chronological order.

/ = Slide

Intro:
D / E
C / D
G / A
G   A
D / E
(x2)

Verse 1(same as intro):
D / E
C / D
G / A
G   A
D / E
(x2)

Chorus:
E - G - D - G - A - E (x3)

      D     A       Em
But I only think of you.. (x1)


Verse 2(same as intro):
D / E
C / D
G / A
G   A
D / E
(x2)

Chorus:
E - G - D - G - A - E (x3)

  D     A       Em
I only think of you.. (x2)


Then, during the instrumental part, the bass and the guitar kinda plays something like this:
e|-----------------------------------------------|
B|-----------------------------------------------|
G|-----------------------------------------------|
D|--------------------2-----------------------2--|
A|-----2--5-----4--5-----------5--------4--5-----|
E|--3--------5-----------3--5-----0--5-----------|


And then one guitar plays this little thing:
e|--12--12--12---------------------------------------------|
B|--------------14--14b15--12--15--15--15--14--14--12--14--|
G|---------------------------------------------------------|
D|---------------------------------------------------------|
A|---------------------------------------------------------|
E|---------------------------------------------------------|


Chorus:
E - G - D - G - A - E (x3)

  D     A       Em
I only think of you.. (x2)


Outro:
E - G - Am - G - F# - B -
C# - E - D
E - G - Am - G - F# - B -
C# - E - D
E (end on an E major)
Tap to rate this tab
# A B C D E F G H I J K L M N O P Q R S T U V W X Y Z