Song name
# A B C D E F G H I J K L M N O P Q R S T U V W X Y Z

Pond - Giant Tortoise tab

-------------------------------------------------------------------------------
			     GIANT TORTOISE - Pond
-------------------------------------------------------------------------------
Tabbed by: Kiran Memisoglou
E-mail: kiran136540@gmail.com

This tab should be right because we got it from the guys in Pond.

Tuning: Standard

Intro:
Chords

e|---------------------------------------------------------------------------|
B|---------------------------------------------------------------------------|
G|---------------------------------------------------------------------------|
D|-14--14--14--14--14--------------------------------------------------------|
A|-14--14--14--14--14--------------------------------------------------------|
E|-12--12--12--12--12--------------------------------------------------------|

Lead on top of chords
e|---------------------------------------------------------------------------|
B|---------------------------------------------------------------------------|
G|---------------------------------------------------------------------------|
D|---------------------------------------------------------------------------|
A|-7---9---5---4---4---2---4-------------------------------------------------|
E|-----------------------------5---3---2-------------------------------------|x2

Then
e|-7--7--7--7--7--7--7--7--7--7--7--7--10--10--10--10--12--------------------|
B|-7--7--7--7--7--7--7--7--7--7--7--7--10--10--10--10--12--------------------|
G|-10-10-10-10-10-10-10-10-10-10-10-10-11--11--11--11--13--------------------|
D|-9--9--9--9--9--9--9--9--9--9--9--9--12--12--12--12--14--------------------|
A|-9--9--9--9--9--9--9--9--9--9--9--9--12--12--12--12--14--------------------|
E|-7--7--7--7--7--7--7--7--7--7--7--7--10--10--10--10--12--------------------|



Verse Chords (Bass)
Emaj7, Amaj7, Gmaj7, Amaj7, Emaj7

Emaj7, Amaj7, Gmaj7, Amaj7



Chorus
Guitar 1
e|---------------------------------------------------------------------------|
B|---------------------------------------------------------------------------|
G|---------------------13-14b16-13-------------------------------------------|
D|-14--14--14-------14-------------14-----7---5---5--5--5--5--5--7-----------|
A|-14--14--14-----------------------------7---5---5--5--5--5--5--7-----------|
E|-12--12--12-----------------------------5---3---3--3--3--3--3--5-----------|

Guitar 2
e|---------------------------------------------------------------------------|
B|---------------------------------------------------------------------------|
G|----------------------------------------7---6---4--6--6--6--6--4-----------|
D|-14--14--14----------------------------------------------------------------|
A|-14--14--14----------------------------------------------------------------|
E|-12--12--12----------------------------------------------------------------|

Back to Intro 

Chords

e|---------------------------------------------------------------------------|
B|---------------------------------------------------------------------------|
G|---------------------------------------------------------------------------|
D|-14--14--14--14--14--------------------------------------------------------|
A|-14--14--14--14--14--------------------------------------------------------|
E|-12--12--12--12--12--------------------------------------------------------|

Lead on top of chords
e|---------------------------------------------------------------------------|
B|---------------------------------------------------------------------------|
G|---------------------------------------------------------------------------|
D|---------------------------------------------------------------------------|
A|-7---9---5---4---4---2---4-------------------------------------------------|
E|-----------------------------5---3---2-------------------------------------|


e|-7--7--7--7--7--7--7--7--7--7--7--7--10--10--10--10--12--------------------|
B|-7--7--7--7--7--7--7--7--7--7--7--7--10--10--10--10--12--------------------|
G|-10-10-10-10-10-10-10-10-10-10-10-10-11--11--11--11--13--------------------|
D|-9--9--9--9--9--9--9--9--9--9--9--9--12--12--12--12--14--------------------|
A|-9--9--9--9--9--9--9--9--9--9--9--9--12--12--12--12--14--------------------|
E|-7--7--7--7--7--7--7--7--7--7--7--7--10--10--10--10--12--------------------|


Verse Chords (Bass)
Emaj7, Amaj7, Gmaj7, Amaj7, Emaj7

Emaj7, Amaj7, Gmaj7, Amaj7


Chorus
Guitar 1
e|---------------------------------------------------------------------------|
B|---------------------------------------------------------------------------|
G|---------------------13-14b16-13-------------------------------------------|
D|-14--14--14-------14-------------14-----7---5---5--5--5--5--5--7-----------|
A|-14--14--14-----------------------------7---5---5--5--5--5--5--7-----------|
E|-12--12--12-----------------------------5---3---3--3--3--3--3--5-----------|

Guitar 2
e|---------------------------------------------------------------------------|
B|---------------------------------------------------------------------------|
G|----------------------------------------7---6---4--6--6--6--6--4-----------|
D|-14--14--14----------------------------------------------------------------|
A|-14--14--14----------------------------------------------------------------|
E|-12--12--12----------------------------------------------------------------|


Back to intro
e|---------------------------------------------------------------------------|
B|---------------------------------------------------------------------------|
G|---------------------------------------------------------------------------|
D|-14--14--14--14--14--------------------------------------------------------|
A|-14--14--14--14--14--------------------------------------------------------|
E|-12--12--12--12--12--------------------------------------------------------|

Lead on top of chords
e|---------------------------------------------------------------------------|
B|---------------------------------------------------------------------------|
G|---------------------------------------------------------------------------|
D|---------------------------------------------------------------------------|
A|-7---9---5---4---4---2---4-------------------------------------------------|
E|-----------------------------5---3---2-------------------------------------|


Chorus
Guitar 1
e|---------------------------------------------------------------------------|
B|---------------------------------------------------------------------------|
G|---------------------13-14b16-13-------------------------------------------|
D|-14--14--14-------14-------------14-----7---5---5--5--5--5--5--7-----------|
A|-14--14--14-----------------------------7---5---5--5--5--5--5--7-----------|
E|-12--12--12-----------------------------5---3---3--3--3--3--3--5-----------|

Guitar 2
e|---------------------------------------------------------------------------|
B|---------------------------------------------------------------------------|
G|----------------------------------------7---6---4--6--6--6--6--4-----------|
D|-14--14--14----------------------------------------------------------------|
A|-14--14--14----------------------------------------------------------------|
E|-12--12--12----------------------------------------------------------------|




************************************

| /   slide up
| \   slide down
| h   hammer-on
| p   pull-off
| ~   vibrato
| +   harmonic
| x   Mute note
| b   Bend
| pb  Pre-bend
| br  Bend release
| pbr Pre-bend release
| brb Bend release bend

************************************
Tap to rate this tab
# A B C D E F G H I J K L M N O P Q R S T U V W X Y Z